Ac Dc

Ac Dc - Guns For Hire guitar tab

End intro:

E|--------------------------|----------------------------------|

B|--------------------------|----------------------------------|

G|--------------------------|----------------------------------|

D|--2h-2h-2h-2h-2h-2h-2h-2p-|--0h2p0h2p0h2p0h2p0h2p0h2p0h2p0h2-|

A|--------------------------|----------------------------------|

E|--------------------------|----------------------------------|

Riff:

|-----------------------|---------------------|-----------------------|

|-----------------------|---------------------|-----------------------|

|-----------------------|---------------------|-----------------------|

|--7--9------7----7--2--|----4----------------|--7--9------7----7--2--|

|--5--7------5----4--0--|----2------5----5----|--5--7------5----4--0--|

|-----------------------|-----------3----2----|-----------------------|

|---------------------|-----------------------|---------------------|

|---------------------|-----------------------|---------------------|

|---------------------|-----------------------|---------------------|

|----4----------------|--7--9------7----7--2--|----4----------------|

|----2------5----5----|--5--7------5----4--0--|----2------5----5----|

|-----------3----2----|-----------------------|-----------3----2----|

the word...

|-----------------------|---------------------|-------------------|

|-----------------------|---------------------|-------------------|

|-----------------------|---------------------|--2----------------|

|--7--9------7----7--2--|----4----------------|--2----------------|

|--5--7------5----4--0--|----2------5----5----|--0----------------|

|-----------------------|-----------3----2----|-------------------|

|---------------------|-------------------|-----------------------|

|--3----------3--3----|-------------------|--3--3----3----3-------|

|--2----------0--2----|--2----------------|--0--2----0----2-------|

|--0----------0--0----|--2----------------|--0--0----0----0----2--|

|--0-------------0----|--0----------------|-----0---------0----0--|

|-------------3-------|-------------------|--3-------3------------|

I'm a real...

|-------------------|---------------------|-------------------|

|-------------------|--3----------3--3----|-------------------|

|--2----------------|--2----------0--2----|--2----------------|

|--2----------------|--0----------0--0----|--2----------------|

|--0----------------|--0-------------0----|--0----------------|

|-------------------|-------------3-------|-------------------|

quick draw...

|-----------------------|-------------------|---------------------|

|--3--3----3----3-------|-------------------|--3----------3--3----|

|--0--2----0----2-------|--2----------------|--2----------0--2----|

|--0--0----0----0----2--|--2----------------|--0----------0--0----|

|-----0---------0----0--|--0----------------|--0-------------0----|

|--3-------3------------|-------------------|-------------3-------|

you want...

|-------------------|-----------------------|-------------------|

|-------------------|--3--3----3----3-------|-------------------|

|--2----------------|--0--2----0----2-------|--2----------------|

|--2----------------|--0--0----0----0----2--|--2----------------|

|--0----------------|-----0---------0----0--|--0----------------|

|-------------------|--3-------3------------|-------------------|

|---------------------|-------------------|----------------------|

|--3----------3--3----|-------------------|--3--3----3----3------|

|--2----------0--2----|--2----------------|--0--2----0----2------|

|--0----------0--0----|--2----------------|--0--0----0----0------|

|--0-------------0----|--0----------------|-----0---------0------|

|-------------3-------|-------------------|--3-------3-----------|

guns for hire shoot...

|-----------------------|---------------------|-----------------------|

|-----------------------|---------------------|-----------------------|

|-----------------------|---------------------|-----------------------|

|--7--9------7----7--2--|----4----------------|--7--9------7----7--2--|

|--5--7------5----4--0--|----2------5----5----|--5--7------5----4--0--|

|-----------------------|-----------3----2----|-----------------------|

guns for hire

|---------------------|-----------------------|---------------------|

|---------------------|-----------------------|---------------------|

|---------------------|-----------------------|---------------------|

|----4----------------|--7--9------7----7--2--|----4----------------|

|----2------5----5----|--5--7------5----4--0--|----2------5----5----|

|-----------3----2----|-----------------------|-----------3----2----|

shoot... to verse:

|-----------------------|---------------------|

|-----------------------|---------------------|

|-----------------------|---------------------|

|--7--9------7----7--2--|----4----------------|

|--5--7------5----4--0--|----2------5----5----|

|-----------------------|-----------3----2----|

after 2nd chorus:

desire...

|-----------------------|--------------------|--------------------|

|-----------------------|--------------------|--------------------|

|-----------------------|--------------------|--------------------|

|--7--9------7----7--2--|----4---------------|--------------------|

|--5--7------5----4--0--|----2------------5--|----7------------5--|

|-----------------------|-----------------3--|----5------------3--|

to solo:

|--------------------|--------------------|-------------------|

|--------------------|--------------------|-------------------|

|--------------------|--------------------|-------------------|

|--------------------|--------------------|-------------------|

|----7------------5--|----7------------5--|----7--------------|

|----5------------3--|----5------------3--|----5--------------|

Tabbed by: "slob hand Steffs" 30/3-2003

Guns for hire-Flick of the switch

Get this song at:  amazon.com

Share your thoughts

0 Comments found