Ac Dc

Ac Dc - Got You By The Balls guitar tab

AC/DC

Got you by the Balls

I learned this song by my dad- it sounds almost exactly like it.

I'm pretty sure this is it.

This is the intro and the chorus of the song:

/----------------------------------------------------------

/----------------------------------------------------------

/----------------------------------------------------------

/--2-0-2-2----5-2-----2-0-2-2-----5------------------------

/--0---0-0----3-0-----0---0-0-----3------------------------

/----------------------------------------------------------

Play this a few times in the intro and the chorus.

/----------------------------------------------------------

/----------------------------------------------------------

/----------------------------------------------------------

/--2-0-2-2----5-2-----2-0-2-2-----5------------------------

/--0---0-0----3-0-----0---0-0-----3------------------------

/----------------------------------------------------------

If you have any questions or anything else e-mail me at

ozzyjr303@yahoo.com

Get this song at:  amazon.com

Share your thoughts

0 Comments found