Ac Dc

Ac Dc - Got You By The Balls bass tab

AC/DC - Got You By The Balls

From The Razor's Edge (1990)

Tabbed by Craig Jones, 2006

Standard tuning E,A,D,G

~ Let it ring

Intro

G|-------------|-----------|

D|-------------|---5-------| x2

A|-0-5-0-0-3-0-|-5---5-0-5-|

E|-------------|-----------|

Verse

|-------------|-----------|

|-------------|---5-------| x4

|-0-5-0-0-3-0-|-5---5-0-5-|

|-------------|-----------|

Pre-Chorus

|-------------------------------|

|-------------------------------|

|-3x16--5x16--3x16--5x8 7x8 7~--|

|-------------------------------|

Chorus

|-------------|-----------|

|-------------|---5-------| x3

|-0-5-0-0-3-0-|-5---5-0-5-|

|-------------|-----------|

|-------------|-------------|

|-------------|---5~--------|

|-0-5-0-0-3-0-|-5----5~--0~-|

|-------------|-------------|

Pre-Solo

|-------------|

|-------------| x8

|-0-5-0-0-3-0-|

|-------------|

Solo

|---|-------------|-------|-------------|

|---|-------------|-------|-------------|

|-0-|-0-5-3-5-3-5-|-------|-----------5-|

|---|-------------|-2-3-5-|-2-3-2-3-5---|

|-------------|-------|---------------|

|-------------|-------|---------------|

|-0-5-3-5-3-5-|-------|-----------5---|

|-------------|-2-3-5-|-2-3-2-3-5---5~|

Final Chorus

|-------------|-----------|

|-------------|---5-------| x7

|-0-5-0-0-3-0-|-5---5-0-5-|

|-------------|-----------|

|-------------|-------------|

|-------------|---5~--------|

|-0-5-0-0-3-0-|-5----5~--0~-|

|-------------|-------------|

Outro

|-----------|

|-----------|

|-0-5-0-0-0-|

|-----------|

Played in this order:

Intro

Verse x2

Pre-Chorus

Chorus

Verse

Pre-Chorus

Chorus

Pre-Solo

Solo

Final Chorus

Outro

Get this song at:  amazon.com sheetmusicplus.com

Share your thoughts

0 Comments found