Ac Dc

Ac Dc - Goodbye Good Riddance To Bad Luck guitar tab

AC/DC - Goodbye & Good Riddence To Bad Luck

tabbed by lmnop07

E--------------------------|---3---------2--------| |----------------------|

B------3-------------------|---3---------3--------| |----------------------|

G---2--2--2---2------2-----|---0---------2--------| |----------------------|

D---2--0--2---2------2-----|---0---------0--------| |----2-----------------|

A---0-----0---0-3p0--0-----|----------------------| |----2-----------------|

E--------------------------|---3------------------| repeat 4 times |----0-----------------|

Riff 1

E----------------------------------------------------------------------------|

B---------------------------------------------------3------------------------|

G---------2-----------------------------------------2---2--------------------|

D---------2-----------------------------------------0---2--------------------|

A---------0---------------------------------------------0--------------------|

E----------------------------------------------------------------------------| x2

"gettin bombed out on booze got nothing to loose run.......disposable blues..."

Pre Chorus

E|-----------------------------------------------------------|

B|---3------------------------------------3------------------|

G|---2------------------------------------0-----------2------|

D|---0-------------------2----------------0-----------2------|

A|-----------------------2----------------------------0------|

E|-----------------------0----------------3------------------| x3

"Want somthing for nothin its always the same"

CHORUS

E|---------------------------------------------------------------|

B|---3--3------3--3------3---------------------------------------|

G|---2--2------2--2------2---------------------------------------|

D|---0--0------0--0------0---2-----------------------------------|

A|---------------------------2-----------------------------------|

E|---------------------------0-----------------------------------|

"Good bye , Good bye, Good bye and good riddence to bad luck"

Riff 1.2

E---------------------------------------------------------------------------------|

B-------------------------------------------------------------3-------------------|

G---------2----2-------------------------2----2---------------2----2--------------|

D---------2----2-------------------------2----2---------------0----2--------------|

A---------0----0-------------------------0----0--------------------0--------------|

E---------------------------------------------------------------------------------| x2

"well spread out the news theres a free man loose back out of jail

fill

E|------------------------------------------|

B|-------------------------12^10~~~~~~~~~~--|

G|------------------------------------------|

D|------------------------------------------|

A|------------------------------------------|

E|------------------------------------------|

"and chasin some flooze"

end of 2nd chorus

E|------------------------------------------------------------|

B|----------------3-------------------------------------------|

G|---------2------2-------------------------------------------|

D|---------2------0-------------------------------------------|

A|---------0--------------------------------------------------|

E|------------------------------------------------------------|

...bad luck good bye and good riddence to bad luck

Guitar 1

E|-----------------------------------------------------------------------------|

B|-----------------------------------------------------------------------------|

G|-----------0---0--------0---0-------0---0--------0---0--------0---0----------|

D|-------2---0---0----2---0---0----2--0---0----2---0---0----2---0---0----2-----|

A|-------2------------2------------2-----------2------------2------------2-----|

E|-------0---3---3----0---3---3----0--3---3----0---3---3----0---3---3----0-----|

"yeah"

Guitar 2

E|-----------------------------------------------------------------------------|

B|----------12--12--------12--12------12--12------12--12--------12-12----------|

G|----------12--12--------12--12------12--12------12--12--------12-12----------|

D|------14-----------14-----------14----------14-----------14------------14----|

A|-----------------------------------------------------------------------------|

E|-----------------------------------------------------------------------------|

Guitar solo (not the spoon solo! Duh!) AH

E|---------------------------------------------------------------------------------------------|

B|--8b----8b---7b-7-5--------------------------------------------------------------------------|

G|--------------------7b-7-5---7-5-------5-------------5--5^7-5-------------2---4b-4b-------|

D|---------------------------7-----\---7---------7\-/7\-/----------7----2--2-4---4-------------|

A|---------------------------------------------------------------------------------------------|

E|---------------------------------------------------------------------------------------------|

E|--2------------------------------------------------8\------5-8b>>>>>>-8--5--8-5--------------|

B|----2-5-------------------------------------5---8b-----5-7-----------------------------8b----|

G|--------4b-4b-4-2-4---4b-2------------5-7/9---5----------------------------------------------|

D|--------------------4------------------------------------------------------------------------|

A|---------------------------------------------------------------------------------------------|

E|---------------------------------------------------------------------------------------------|

E|-----------10---12-11-10--------------------------------------------17-----------------------|

B|-10--13b-----10----------13-10----10-13-10-10--10--13--13--------------20^17----17-----------|

G|-------------------------------12-------------------------------19b----------19----17----19--|

D|--------------------------------------------------------------------------------------19-----|

A|---------------------------------------------------------------------------------------------|

E|---------------------------------------------------------------------------------------------|

E|---------------------------------------------------------------------------------------------|

B|-----------------------------------------------------------------14~~~~~~~~~~~~~~~~~~~~~~~~~~|

G|-17-------19b-19b-19b---------------------\--------------------------------------------------|

D|----19-17------------------------------------------------------------------------------------|

A|---------------------------------------------------------------------------------------------|

E|---------------------------------------------------------------------------------------------|

E|---------------------------------------------------17-----17---------------------17---17-----|

B|--14--------12-------12\----14---------15br-13-15b----15b----------13----13/-----15b--15b----|

G|----------------------------------------------------------------------14---------------------|

D|---------------------------------------------------------------------------------------------|

A|---------------------------------------------------------------------------------------------|

E|---------------------------------------------------------------------------------------------|

E|-15--------------17--17-17-------------------------------------------------------------------|

B|-15-13----13-15b-----------15b-----15b--15-15b---15--13---------------------15b--15--15b-----|

G|-------14-----------------------------------------------14---12--14--14----------------------|

D|-----------------------------------------------------------/---------------------------------|

A|---------------------------------------------------------------------------------------------|

E|---------------------------------------------------------------------------------------------|

Free Time in A

E|--------------17--------------------------|--------------------------------------------------|

B|-15-13----15b----15brbrbr-16-15-13--------|----8b--8-7--6--5--------7b--5--------------------|

G|-------14--------------------------14-14--|------------------5-7--5-7b--5-7--5--------2------|

D|------------------------------------------|------------------------------------7------2------|

A|------------------------------------------|-------------------------------------------0------|

E|------------------------------------------|--------------------------------------------------|

Get this song at:  amazon.com

Share your thoughts

0 Comments found