Ac Dc

Ac Dc - Go Zone guitar tab

INTRO:

-------------------------------------------------------

-------------------------------------------------------

-------------------------------------------------------

-1/7~-5~--1/2~~--1/7~-5~-1/2~~-0-----------------------

---------------------------------3~-0------------------

-------------------------------------3~-0-5------------

-3-3-3-3-3-3-3-3-3------------------------------------

-3-3-3-3-3-3-3-3-3------------------------------------

-2-2-2-2-2-2-2-2-2---1/2~~----------------------------

---------------------1/2~~----------------------------

------------------------------------------------------

------------------------------------------------------

VERSE (Keep repeating):

-3-3-3-3-------------------------3-3-3-3---------------

-3-3-3-3-------------------------3-3-3-3---------------

-2-2-2-2---0h2---0h2----0h2-0h2--2-2-2-2--0h2---0h2----

-----------0h2---0h2----0h2-0h2-----------0h2---0h2----

-----------0-----0------0---0-------------0-----0------

-------------------------------------------------------

-------------------------------------------------------

-------------------------------------------------------

--0h2-0h2----------------------------------------------

--0h2-0h2----------------------------------------------

--0---0------------------------------------------------

-------------------------------------------------------

"Don't need no private eye..." (Repeat 3 times)

--3-3-3--3-3--------3-3-3--3-3--------------------------

--3-3-3--3-3--------3-3-3--3-3--------------------------

--2-2-2--2-2--1/2~--2-2-2--2-2--1/4~--------------------

--------------1/2~--------------1/4~--------------------

--------------------------------------------------------

--------------------------------------------------------

CHORUS:

"Go Zone"

-3-3-3-3-3-3-3-3-3------------------------------------

-3-3-3-3-3-3-3-3-3------------------------------------

-2-2-2-2-2-2-2-2-2---1/2~~----------------------------

---------------------1/2~~----------------------------

------------------------------------------------------

------------------------------------------------------

"Ready to Rock" "Down, down, down..."

--------------------------------------------------------

--------------------------------------------------------

------------6-------------------------------------------

------------6--------1/7~--5~--1/2~--0------------------

--------2---4--------------------------3~-0-------------

--2--4--------------------------------------3~-0--5-----

-3-3-3-3-3-3-3-3-3------------------------------------

-3-3-3-3-3-3-3-3-3------------------------------------

-2-2-2-2-2-2-2-2-2---1/2~~----------------------------

---------------------1/2~~----------------------------

------------------------------------------------------

------------------------------------------------------

REPEAT VERSE

Get this song at:  amazon.com

Share your thoughts

0 Comments found