Ac Dc

Ac Dc - Givin The Dog A Bone bass tab

G:5-----7-----5-----7-----5--------------|

D:--7-7---7-7---7-7---7-7---7-7-7-7 X10-|

A:---------------------------------------|

E:---------------------------------------|

G:--5-----7---5-----7---5-----|

D:7---7-5---7---7-7---7---7---| X3

A:----------------------------|

E:----------------------------|

(Chorus)

G:----------------|

D:--5-----7-5-----| X8

A:7---7-7-----7---|

E:----------------|

G:5-----7-----5-----7-----5-----------|

D:--7-7---7-7---7-7---7-7---7-7-7-7---| X6

A:------------------------------------|

E:------------------------------------|

G:--5-----7---5-----7---5-----|

D:7---7-5---7---7-7---7---7---| X3

A:----------------------------|

E:----------------------------|

(Chorus)

G:----------------|

D:--5-----7-5-----| X8

A:7---7-7-----7---|

E:----------------|

(During Solo)

G:5------------------5-----7-5-----|

D:--7-7-7-7-7-7-7-7----7-7-----7---| X3

A:---------------------------------|

E:---------------------------------|

G:---------------------------------|

D:5------------------5-----7-5-----| X3

A:--7-7-7-7-7-7-7-7----7-7-----7---|

E:---------------------------------|

G:--------------|

D:5-----7-5-----| X2

A:--7-7-----7---|

E:--------------|

G:---------------------|

D:5-7--5-7--5-7--5-7-7-|

A:---------------------|

E:---------------------|

G:5-----7-----5-----7-----5-----------|

D:--7-7---7-7---7-7---7-7---7-7-7-7---| X4

A:------------------------------------|

E:------------------------------------|

(Chorus)

G:----------------|

D:--5-----7-5-----| X8

A:7---7-7-----7---|

E:----------------|

G:--5-----7-5-----|

D:7---7-7-----7---| X6

A:----------------|

E:----------------|

(Outro)

G:5-7--5-7--5-7---5-7--5-7--5---------|

D:----------------------------5-7---7-|

A:------------------------------------|

E:------------------------------------|

Get this song at:  amazon.com sheetmusicplus.com

Share your thoughts

0 Comments found