Ac Dc

Ac Dc - Given The Dog A Bone bass tab

Verse:

G:-5-----7-----5-----5---------

D:---7-7---7-7---7-7---7-7-7-7-

A:-----------------------------

E:-----------------------------

Pre-Chorus:

G:-5-4---7-5-----7-----5-----

D:-----7-----7-7---7-7---7-7-

A:---------------------------

E:---------------------------

Chorus:

G:---------------

D:---5-----7-5---

A:-7---7-7-----7-

E:---------------

Solo:

G:-5-----------------5-----7-5------------------------------------------

D:---7-7-7-7-7-7-7-7---7-7-----7-5-----7-5----5-7--5-7--5-7--5-7--5-7-7-

A:---------------------------------7-7-----7----------------------------

E:----------------------------------------------------------------------

Outro:

G:-5-7--5-7--5-7--5-7--5-7--5-------

D:----------------------------5-7-7-

A:----------------------------------

E:----------------------------------

Very easy song to learn, but still fun.

Tell me if you think it's wrong. Thanks!

Get this song at:  amazon.com

Share your thoughts

0 Comments found