Ac Dc

Ac Dc - Girls Got Rhythm bass tab

Intro

(angus plays the riff 3x, then the bass comes in)

G|---------------------|

D|---------------------|

A|--5--3------------3-0|

E|--------0-3-5-5-3----|

Then....

G|---------------------|

D|---------------------|

A|--5--3---------------|

E|-------0-3-5-5-3-5---|

Pre-chorus.....

G|---------------------|

D|---------------------|

A|--3-3-3-----------3-0|

E|-------0-3-5-5-3-----|

Brought to you by the BassMasta - http://www.tabs-database.com

Get this song at:  amazon.com sheetmusicplus.com

Share your thoughts

0 Comments found