Ac Dc

Ac Dc - Gimme A Bullet bass tab

AC/DC-Gimme A Bullet

Powerage (1978)

Transcribed by: playinbass1432

Email: playinbass1432@hotmail.com

Tune down 1/2 step

Intro:

Ab

Gb|-----------------|-----------------|-----------------|-----------------|

Db|-----------------|-----------------|-----------------|-----------------|

Ab|-----------------|-----------------|-----------------|-----------------|

Eb|-5---5---5---5---|-5---5---5---5---|-5---5---5---5---|-5---5---5---5---|

Ab

Gb|-----------------|-----------------|-----------------|-----------------|

Db|-----------------|-----------------|-----------------|-----------------|

Ab|-----------------|-----------------|-----------------|-----------------|

Eb|-5---5---5---5---|-5---5---5---5---|-5---5---5---5---|-5---5---5---5---|

Pre Verse 1:

Ab

Gb|-----------------|-----------------|-----------------|-----------------|

Db|-----------------|-----------------|-----------------|-----------------|

Ab|-----------------|-----------------|-----------------|-----------------|

Eb|-5---5---5---5---|-5---5---5---5---|-5---5---5---5---|-5---5---5---5---|

Ab

Gb|-----------------|-----------------|-----------------|-----------------|

Db|-----------------|-----------------|-----------------|-----------------|

Ab|-----------------|-----------------|-----------------|-----------------|

Eb|-5---5---5---5---|-5---5---5---5---|-5---5---5---5---|-5---5---5-0-2---|

Verse 1:

Ab

Gb|-----------------|-----------------|-----------------|-----------------|

Db|-----------------|-----------------|-----------------|-----------------|

Ab|-----------------|-----------------|-----------------|-----------------|

Eb|-5---5---5---5---|-5---5---5---5---|-5---5---5---5---|-5---5---5---5---|

Ab

Gb|-----------------|-----------------|-----------------|-----------------|

Db|-----------------|-----------------|-----------------|-----------------|

Ab|-----------------|-----------------|-----------------|-----------------|

Eb|-5---5---5---5---|-5---5---5---5---|-5---5---5---5---|-5---5---5---5---|

Ab

Gb|-----------------|-----------------|-----------------|-----------------|

Db|-----------------|-----------------|-----------------|-----------------|

Ab|-----------------|-----------------|-----------------|-----------------|

Eb|-5---5---5---5---|-5---5---5---5---|-5---5---5---5---|-5---5---5---5---|

Ab

Gb|-----------------|-----------------|-----------------|-----------------|

Db|-----------------|-----------------|-----------------|-----------------|

Ab|-----------------|-----------------|-----------------|-----------4-7---|

Eb|-5---5---5---5---|-5---5---5---5---|-5---5---5---5---|-5---5---5-------|

Chorus 1:

Ab Ab

Gb|-----------------|-----------------|-----------------|-----------------|

Db|-7---7---4-------|-----------------|-7---7---7-------|-----------------|

Ab|-------7---7-----|-----------------|-----------7-----|-----------------|

Eb|-------------8-7-|-5---5---5-0-2---|-------------8-7-|-5---5---5-0-2---|

Ab Ab E

Gb|-----------------|-----------------|-----------------|-----------------|

Db|-7---7---7-------|-----------------|-----------------|-----------------|

Ab|-----------7-----|-----------------|-----------------|------5//////17--|

Eb|-------------8-7-|-5---5---5-5-3-3-|-1---1---1-1-1-3-|-----------------|

Pre Verse 2:

Ab

Gb|-----------------|-----------------|-----------------|-2---------------|

Db|-----------------|-----------------|-----------------|---2-4---4---2---|

Ab|-----------------|-----------------|-----------------|-----------4-----|

Eb|-5---5---5-0-2---|---5-5---5-0-2---|---5-5---5-0-2---|-----------------|

Ab

Gb|-----------------|-----------------|-----------------|---14--14--------|

Db|-----------------|-----------------|-----------------|-14--14--14------|

Ab|-----------------|-----------------|-----------------|-----------------|

Eb|-5---5---5-0-2---|---5-5---5-0-2---|---5-5---5-0-2---|-----------------|

Verse 2:

Ab

Gb|-----------------|-----------------|-----------------|-----------------|

Db|-----------------|-----------------|-----------------|-----------------|

Ab|-----------------|-----------------|-----------------|-----------------|

Eb|-5---5---5---5---|-5---5---5---5---|-5---5---5---5---|-5---5---5---5---|

Ab

Gb|-----------------|-----------------|-----------------|-----------------|

Db|-----------------|-----------------|-----------------|-----------------|

Ab|-----------------|-----------------|-----------------|-----------------|

Eb|-5---5---5---5---|-5---5---5---5---|-5---5---5---5---|-5---5---5---5---|

Ab

Gb|-----------------|-----------------|-----------------|-----------------|

Db|-----------------|-----------------|-----------------|-----------------|

Ab|-----------------|-----------------|-----------------|-----------------|

Eb|-5---5---5---5---|-5---5---5---5---|-5---5---5---5---|-5---5---5---5---|

Ab

Gb|-----------------|-----------------|-----------------|-----------------|

Db|-----------------|-----------------|-----------------|-----------------|

Ab|-----------------|-----------------|-----------------|-----------4-7---|

Eb|-5---5---5---5---|-5---5---5---5---|-5---5---5---5---|-5---5---5-------|

Chorus 2:

Ab Ab Ab F Ab

Gb|-----------------|-----------------|-----------------|-----------------|

Db|-7---4-----------|-----------------|-7---4-----------|-----------------|

Ab|---7---7---------|-----------------|---7---7---------|-----------------|

Eb|---------8-7-5---|-5-0-2---5-0-2---|---------8-7-5---|-5---2---5---5---|

Ab E F#

Gb|-----------------|-----------------|-----------------|--------//////7-7|

Db|---4-7-----------|-----------------|-3---3---3-3-3-5-|---5-5-----------|

Ab|-----------------|-----------------|-----------------|-------5---------|

Eb|-5-------5---5-2-|-5---5---5-5-3-3-|-----------------|-----------------|

Bridge:

Ab

Gb|-----------------|-----------------|-----------------|-----------------|

Db|-----------------|-----------------|-----------------|-----------------|

Ab|-----------------|-----------------|-----------------|-----------------|

Eb|-5-------5-------|-5-------5-------|-5-------5-------|-5-------5-------|

Ab

Gb|-----------------|-----------------|-----------------|-----------------|

Db|-----------------|-----------------|-----------------|-----------------|

Ab|-----------------|-----------------|-----------------|-----------------|

Eb|-5-------5-------|-5-------5-------|-5-------5-------|-5-------5-0-2-0-|

Outro Chorus:

Ab

Gb|-----------------|-----------------|-----------------|-----------------|

Db|-----------------|-----------------|-----------------|-----------------|

Ab|-----------------|-----------------|-----------------|-----------------|

Eb|-5-0-5---5---5---|-5---5---5---5---|-5---5---5---5---|-5---5---5---5---|

Ab

Gb|-----------------|-----------------|-----------------|-----------------|

Db|-----------------|-----------------|-----------------|-5/7-7-7-5/7-4---|

Ab|-----------------|-----------------|-----------------|---------------7-|

Eb|-5---5---5---5---|-5---5---5---5---|-5---5---5---5---|-----------------|

Ab

Gb|-----------------|-----------------|-----------------|-----------------|

Db|-----------------|-----------------|-----------------|-----4---7---4---|

Ab|-----------------|-----------------|-----------------|---7-----------7-|

Eb|-5-0-2---5---5---|-5-0-2---5---5-0-|-5-0-2---5---5-0-|-5---------------|

Ab

Gb|-----------------|-----------------|-----------------|--------12-14----|

Db|-----------------|-----------------|----------------/|12-14-12----14-12|

Ab|-----------------|-----------------|-----------------|-----------------|

Eb|-5-0-2---5---5---|---2-5---5---5-2-|-5-0-2---5-0-2-0-|-----------------|

Ab

Gb|-----------------|-----------------|-----------------|-----------------|

Db|-----------------|-----------------|-----------------|-----4---7-7-4---|

Ab|-----------------|-----------------|-----------------|---7---7-------7-|

Eb|-5---5---5-0-2-0-|-5---5---5-0-2-0-|-5---5---5-0-2-0-|-----------------|

Ab

Gb|-----------------|-----------------|-----------------|-----------------|

Db|-----------------|-----------------|-----------------|-----------------|

Ab|-----------------|-----------------|-----------------|-----------------|

Eb|-5-0-2---5---5---|---5-0-2---5-0-2-|-5-5-5-0-2--5-2-0|-5---------------|

Gb|-----------------|

Db|-----------------|

Ab|-----------------|

Eb|-5\--------------|

Get this song at:  amazon.com

Share your thoughts

0 Comments found