Ac Dc

Ac Dc - Get It Hot bass tab

AC/DC-Get it Hot

Highway to Hell (1979)

Tabbed by: playinbass1432

Email: playinbass1432@hotmail.com

Tune Down 1/2 step.

Intro:

Bb

Gb|-----------------|-----------------|-----------------|-----------------|

Db|-----------------|-----------------|-----------------|-----------------|

Ab|-----------------|-----------------|-----------------|-----------------|

Eb|-5-7-7-7-7-7-7-7-|-7-7-7-7-7-7-7-7-|-7-7-7-7-7-7-7-7-|-7-7-7-7-7-7-7-7-|

Verse 1:

Bb

Gb|-----------------|-----------------|-----------------|-----------------|

Db|-----------------|-----------------|-----------------|-----------------|

Ab|-----------------|-----------------|-----------------|-----------------|

Eb|-7-7-7-7-7-7-7-7-|-7-7-7-7-7-7-7-7-|-7-7-7-7-7-7-7-7-|-7-7-7-7-7-7-7-7-|

Bb

Gb|-----------------|-----------------|-----------------|-----------------|

Db|-----------------|-----------------|-----------------|-----------------|

Ab|-----------------|-----------------|-----------------|-----------------|

Eb|-7-7-7-7-7-7-7-7-|-7-7-7-7-7-7-7-7-|-7-7-7-7-7-7-7-7-|-7-7-7-5-7-7-5-0-|

Eb Bb Eb Bb

Gb|-----------------|-----------------|-----------------|-----------------|

Db|-----------------|-----------------|-----------------|-----------------|

Ab|-----------------|-----------------|-----------------|-----------------|

Eb|-0-0-2-4-5-5-5-5-|-7-7-7-7-7-6h7-7-|-0-0-2-4-5-5-5-5-|-7-7-7-7-7-7-7-7-|

Eb Ab Bb Eb Bb

Gb|-----------------|-----------------|-----------------|-----------------|

Db|-----------------|-----------------|-----------------|-----------------|

Ab|-----------------|-----------------|-----------------|-----------------|

Eb|-0-0-2-4-5-5-5-5-|-7-7-7-7-7-6h7-7-|-0-0-2-4-5-5-5-5-|-7---------------|

Chorus 1:

Bb

Gb|-----------------|-----------------|-----------------|-----------------|

Db|-----------------|-----------------|-----------------|-----------------|

Ab|-----------------|-----------------|-----------------|-----------------|

Eb|-7-7-7-7-7-7-7-7-|-7-7-7-7-7-7-7-7-|-7-7-7-7-7-7-7-7-|-7-7-7-7-7-7-7-7-|

Bb Eb Ab Eb Bb

Gb|-----------------|-----------------|-----------------|-----------------|

Db|-----------------|-----------------|-----------------|-----------------|

Ab|-----------------|-----------------|-----------------|-----------------|

Eb|-7-7-7-7-7-7-7-7-|-7-7-7-7-7-7-7-7-|-0-0--5--0--7-7--|-----------------|

Verse 2:

Bb

Gb|-----------------|-----------------|-----------------|-----------------|

Db|-----------------|-----------------|-----------------|-----------------|

Ab|-----------------|-----------------|-----------------|-----------------|

Eb|-7---7-7-7-7-7-7-|-7-7-7-7-7-7-7-7-|-7-7-7-7-7-7-7-7-|-7-7-7-7-7-7-7-7-|

Bb

Gb|-----------------|-----------------|-----------------|-----------------|

Db|-----------------|-----------------|-----------------|-----------------|

Ab|-----------------|-----------------|-----------------|-------------5-7-|

Eb|-7-7-7-7-7-7-7-7-|-7-7-7-7-7-7-7-7-|-7-7-7-7-7-7-7-7-|-7-7-7-7-7-7-----|

F Ab Bb Eb Ab Bb

Gb|-----------------|-----------------|-----------------|-----------------|

Db|-----------------|-----------------|-----------------|-----------------|

Ab|-----------------|-----------------|-----------------|-----------------|

Eb|-2-2-4-5-5-5-5-5-|-7-7-7-7-7-7-7-7-|-0-0-2-4-5-5-5-5-|-7-7-7-7-7-7-7-7-|

Bb Ab Bb Eb Bb

Gb|-----------------|-----------------|-----------------|-----------------|

Db|-----------------|-----------------|-----------------|-----------------|

Ab|-7-7-7-7---------|-----------------|-----------------|-----------------|

Eb|---------5-5-5-5-|-7-7-7-7-7-7-7-7-|-0-0-2-4-5-5-5-5-|-7---------------|

Chorus 2:

Bb

Gb|-----------------|-----------------|-----------------|-----------------|

Db|-----------------|-----------------|-----------------|-----------------|

Ab|-----------------|-----------------|-----------------|-----------------|

Eb|-7-7-7-7-7-7-7-7-|-7-7-7-7-7-7-7-7-|-7-7-7-7-7-7-7-7-|-7-7-7-7-7-7-7-7-|

Bb Eb Ab Eb Bb

Gb|-----------------|-----------------|-----------------|-----------------|

Db|-----------------|-----------------|-----------------|-----------------|

Ab|-----------------|-----------------|-----------------|-----------------|

Eb|-7-7-7-7-7-7-7-7-|-7-7-7-7-7-7-7-7-|-0-0--5--0--7-7--|-----------------|

Guitar Solo:

Eb Ab Bb Eb Ab Bb

Gb|-----------------|-----------------|-----------------|-----------------|

Db|-----------------|-----------------|-----------------|-----------------|

Ab|-----------------|-----------------|-----------------|-----------------|

Eb|-0-0-2-4-5-5-5-5-|-7-7-7-5-7-7-7-7-|-0-0-0-0-5-5-5-5-|-7-7-7-5-7-7-5-4-|

Eb Ab Bb Eb Ab Bb

Gb|-----------------|-----------------|-----------------|-----------------|

Db|-----------------|-----------------|-----------------|-----------------|

Ab|-----------------|-----------------|-----------------|-----------------|

Eb|-0-0-0-0-5-5-5-5-|-7-7-7-7-7-7-6h7-|-0-0-0-0-5-5-5-5-|-7---------------|

Chorus 3:

Bb

Gb|-----------------|-----------------|-----------------|-----------------|

Db|-----------------|-----------------|-----------------|-----------------|

Ab|-----------------|-----------------|-----------------|-----------------|

Eb|-7-7-7-7-7-7-7-7-|-7-7-7-7-7-7-7-7-|-7-7-7-7-7-7-7-7-|-7-7-7-7-7-7-7-7-|

Bb

Gb|-----------------|-----------------|-----------------|-----------------|

Db|-----------------|-----------------|-----------------|-----------------|

Ab|-----------------|-----------------|-----------------|-----------------|

Eb|-7-7-7-7-7-7-7-7-|-7-7-7-7-7-7-7-7-|-7-7-7-7-7-7-7-7-|-7-7-7-7-7-7-7-7-|

Bb

Gb|-----------------|-----------------|-----------------|-----------------|

Db|-----------------|-----------------|-----------------|-----------------|

Ab|-----------------|-----------------|-----------------|-----------------|

Eb|-5-7-7-7-7-7-7-7-|-7-7-7-7-7-7-7-7-|-7-7-7-7-7-7-7-7-|-7-7-7-7-7-7-7-7-|

Bb Eb Ab Eb Bb

Gb|-----------------|-----------------|-----------------|-----------------|

Db|-----------------|-----------------|-----------------|-----------------|

Ab|-----------------|-----------------|-----------------|-----------------|

Eb|-7-7-7-7-7-7-7-7-|-7-7-7-7-7-7-7-7-|-0-0--5--0--7-7--|-----------------|

Get this song at:  amazon.com sheetmusicplus.com

Share your thoughts

0 Comments found