Ac Dc

Ac Dc - For Those Abaut To Rock bass tab

~let the notes ring.......

G|-------------------|

D|-------------------|

A|-------------------|

E|-3---2---0---------|

Chorus

G|---------------------------------|

D|---------------------------------|

A|---------------------------------|

E|-7--5-------3---2--0-------------|

Verse Riff

G|-----------------------------------------------------------|

D|-----------------------------------------------------------|

A|-----------------------------------------------------------|

E|-7--7--7--7--5--5--5--5-0---0--0--0--3----0----------------|

Solo

G|-------------------|

D|-------------------|

A|-------------------|

E|-5-5-5-5-5-5-5-5---|X6

G|------------------------------------|

D|-----------------5-5-5-5------------|

A|-----------5-7-5---------5-5-5-5----|

E|-5-5-5-5-5--------------------------|

G|-------------------------------------|

D|-5/7-7-7-7-7-7-7---5~~~~-------------|

A|---------------------------5~~~~-----|

E|-------------------------------------|

G|-------------------------------------|

D|-5/7-7---7-7-7-7---5~~~~-------------|

A|-------7-------------------5~~~~-----|

E|-------------------------------------|

G|-------------------------------------|

D|-5/7-7-7-7-7-7-7---5~~~~---4~~~~-----|

A|-------------------------------------|

E|-------------------------------------|

G|-------------------------------------|

D|-5/7-7-7-7-7-7-7---------------------|

A|---------------------------5~~~~-----|

E|-------------------3~~~~-------------|

G|------------------------------------------|

D|------------------------------------------|

A|-------------------------5----------------|x4

E|-------------------3--3-----5~~~~~----7---|

G|----------------------------------------------------|

D|----------------------------------------------------|

A|---------------------------------5-5----------------|

E|-------------------3--3--3--3--3------5--5--5--5----|

Pre-verse 2

G|----------------------------------------|

D|----------------------------------------|

A|-3-3-3-3-3-3-3-3-5-5-5-5-5-5-5-5--------|

E|----------------------------------------|

The Outro

G|-------------------------------------------------------------------|

D|-------------------------------------------------------------------|

A|---------------------------------------------5-5-5-----------------|

E|-7-7-7-7-7-7-7-7-7-7-7-7-7-7-7-7-3-3-3-3-3-3-------5-5-5-5-5-5-5---|

Get this song at:  amazon.com sheetmusicplus.com

Share your thoughts

0 Comments found