Ac Dc

Ac Dc - Fly On The Wall guitar tab

Fly on the wall

Intro: fly on the wall (spoken)

E|---------------------|-------------------|------------------|

B|---------------------|-------------------|------------------|

G|--------------2------|--2----------------|------------------|

D|--------------2------|--2----------------|------------------|

A|--------------0--3-2-|--0----------------|------------------|

E|---------------------|-------------------|------------------|

|------------3--3----2--|--2----3--3----------|------------3--3----2--|

|----2--2----3--3----3--|--3----3--3----------|----2--2----3--3----3--|

|----2--2----0--0----2--|--2----0--0----------|----2--2----0--0----2--|

|----2--2----0--0----0--|--0----0--0----------|----2--2----0--0----0--|

|----0--0---------------|---------------------|----0--0----2--2-------|

|------------3--3-------|-------3--3----------|------------3--3-------|

|--2----3--3--------------|------------3--3----2--|--2----3--3----------|

|--3----3--3--------------|----2--2----3--3----3--|--3----3--3----------|

|--2----0--0----2------2--|----2--2----0--0----2--|--2----0--0----------|

|--0----0--0----2------2--|----2--2----0--0----0--|--0----0--0----------|

|-------2--2----0--3-2-0--|----0--0---------------|---------------------|

|-------3--3--------------|------------3--3-------|-------3--3----------|

|------------3--3----2--|--2----3--3--------------|------------3--3----2--|

|----2--2----3--3----3--|--3----3--3--------------|----2--2----3--3----3--|

|----2--2----0--0----2--|--2----0--0----2------2--|----2--2----0--0----2--|

|----2--2----0--0----0--|--0----0--0----2------2--|----2--2----0--0----0--|

|----0--0---------------|---------------0--3-2-0--|----0--0---------------|

|------------3--3-------|-------3--3--------------|------------3--3-------|

|--2----3--3--------------|------------3--3----2--|--2----3--3--------------|

|--3----3--3--------------|----2--2----3--3----3--|--3----3--3--------------|

|--2----0--0----2------2--|----2--2----0--0----2--|--2----0--0----2------2--|

|--0----0--0----2------2--|----2--2----0--0----0--|--0----0--0----2------2--|

|---------------0--3-2-0--|----0--0---------------|---------------0--3-2-0--|

|-------3--3--------------|------------3--3-------|-------3--3--------------|

|------------3--3----2--|--2----3--3--------------|------------3--3----2--|

|----2--2----3--3----3--|--3----3--3--------------|----2--2----3--3----3--|

|----2--2----0--0----2--|--2----0--0----2------2--|----2--2----0--0----2--|

|----2--2----0--0----0--|--0----0--0----2------2--|----2--2----0--0----0--|

|----0--0---------------|---------------0--3-2-0--|----0--0---------------|

|------------3--3-------|-------3--3--------------|------------3--3-------|

you can dance...

|--2----3--3--------------|-------------------|------------------|

|--3----3--3--------------|------2------------|------------------|

|--2----0--0----2------2--|------2------------|------------------|

|--0----0--0----2------2--|------2------------|------------------|

|---------------0--3-2-0--|------0------------|------------------|

|-------3--3--------------|-------------------|------------------|

rock'n'roll music... makin' love...

|------3------------|------------------|-------------------|------------------|

|------3------------|------------------|------2------------|------------------|

|------0------------|------------------|------2------------|------------------|

|------0------------|------------------|------2------------|------------------|

|-------------------|------------------|------0------------|------------------|

|------3------------|------------------|-------------------|------------------|

lookin' for dollars... it's a game

|------3------------|------------------|------------3--3----2--|

|------3------------|------------------|----2--2----3--3----3--|

|------0------------|------------------|----2--2----0--0----2--|

|------0------------|------------------|----2--2----0--0----0--|

|-------------------|------------------|----0--0---------------|

|------3------------|------------------|------------3--3-------|

too toughto tame ends up the same

|--2----3--3----------|------------3--3----2--|--2----3--3----------|

|--3----3--3----------|----2--2----3--3----3--|--3----3--3----------|

|--2----0--0----------|----2--2----0--0----2--|--2----0--0----------|

|--0----0--0----------|----2--2----0--0----0--|--0----0--0----------|

|---------------------|----0--0---------------|---------------------|

|-------3--3----------|------------3--3-------|-------3--3----------|

sweatin' out the rain

|------------3--3----2--|--2----3--3----------|------------3--3----2--|

|----2--2----3--3----3--|--3----3--3----------|----2--2----3--3----3--|

|----2--2----0--0----2--|--2----0--0----------|----2--2----0--0----2--|

|----2--2----0--0----0--|--0----0--0----------|----2--2----0--0----0--|

|----0--0---------------|---------------------|----0--0---------------|

|------------3--3-------|-------3--3----------|------------3--3-------|

I was trapped like a

|--2----3--3----------|------------------|---------------3--2--|

|--3----3--3----------|------------------|------2--------3--3--|

|--2----0--0----------|------------------|------2--------0--2--|

|--0----0--0----------|------------------|------2--------0--0--|

|---------------------|------------------|------0--------------|

|-------3--3----------|------------------|---------------3-----|

fly on the wall I was caged like a zoo a-ni-mal no escape

|--3--3--2--3----------|---------------3--2--|--3--3--2--3----2----2--|

|--3--3--3--3----------|------2--------3--3--|--3--3--3--3----3----3--|

|--0--0--2--0----------|------2--------0--2--|--0--0--2--0----2----2--|

|--0--0--0--0----------|------2--------0--0--|--0--0--0--0----0----0--|

|----------------------|------0--------------|------------------------|

|--3--3-----3----------|---------------3-----|--3--3-----3------------|

from the fate that you make you're a snake I've had

|----------------3--2--|--3--3--2--3----------|---------------3--2--|

|----2--2--------3--3--|--3--3--3--3----------|------2--------3--3--|

|----2--2--------0--2--|--0--0--2--0----------|------2--------0--2--|

|----2--2--------0--0--|--0--0--0--0----------|------2--------0--0--|

|----0--0--------------|----------------------|------0--------------|

|----------------3-----|--3--3-----3----------|---------------3-----|

all I can take watch out

|--3--3--2--3----2----2--|------------3--3----2--|--2----3--3----------|

|--3--3--3--3----3----3--|----2--2----3--3----3--|--3----3--3----------|

|--0--0--2--0----2----2--|----2--2----0--0----2--|--2----0--0----------|

|--0--0--0--0----0----0--|----2--2----0--0----0--|--0----0--0----------|

|------------------------|----0--0---------------|---------------------|

|--3--3-----3------------|------------3--3-------|-------3--3----------|

there's a fly on the wall 2nd verse:

|------------------|----------|-------------------||

|------------------|----------|------2------------||

|------------------|----------|------2------------||

|------------------|----------|------2------------||

|------------------|----------|------0------------||

|------------------|----------|-------------------||

I think that is all you need, the rest of the songs do not differ much.

Tablature by Clemens Fehlow.

Get this song at:  amazon.com sheetmusicplus.com

Share your thoughts

0 Comments found