Ac Dc

Ac Dc - Fling Thing guitar tab

FLING THING

tabbed by Thomas Risan Olsen

This tab has been on the net since March 1996. But when I looked at it now

(June 1999) I figured that it needed some re-formatting and changing.

This song is more or less instrumental. But on the studio version

you can hear Bon Scott and possibly some others singing the lyrics

which are the same as the original Scottish song "Loch Lomond" in

the background. There's a live version of this song existing too,

from the Apollo in Glasgow, Scotland, where many of the songs

featured on the album 'If You Want Blood (You've Got it)' were recorded.

Notes about the Riffs:

* Riff 1: might be G5-barre chord

* Riff 2: sounds ok, but might not be correct

* Riff 3: the "Bonny" (a.k.a. "Loch Lomond") part.

* Riff 4: haven't figured this out yet, but it is played by the guitar

in the left channel, and the fades the song out together with

the bass guitar

Other things to be aware of (perhaps):

* figured this out on an acoustic guitar

* the original tab I did had Riff 1 in A, now I believe it's in G

* Riff 3 is written in A and will have to be transposed down to G

2 = 0, 4 = 2 etc...

* The studio version I have was added as a bonus-track to the

"Live From The Atlantic Studios" - bootleg CD.

Riff 1 (right channel)

|-3-----------------------|-3-----------------------|

|-0-----------------------|-0-----------------------|

|-0-----------------------|-0-----------------------|

|-0-----------------------|-0-----------------------|

|-2-----------------------|-2-----------------------|

|-3-----------------------|-3-----------------------|

Riff 2 (left channel) w/Riff 1

|-------------------------|-------------------------|

|-------------------------|-------------------------|

|-0-4p0-0-2p0-0-4p0-0-2p0-|-0-4p0-0-2p0-0-----0-----|

|-------------------------|---------------2h4---2p0-|

|-------------------------|-------------------------|

|-------------------------|-------------------------|

RIFF 3

~~~~ ~~

|-----------------------------------------------------------------------|

|-------2-2------------------------2/5-7----5--5-7-7-5\2-2-5-3-2--------|

|-2-2-4-----4-2-2----------2-2-2-2-------------------------------4p2----|

|-2---------------4p2--2h4-2-----------------------------------------4--|

|-----------------------------------------------------------------------|

|-----------------------------------------------------------------------|

|-----------------------------|

|---------2-5-7--5-2---2------|

|-----2-2------------4---4--2-|

|-2h4-----------------------2-|

|---------------------------0-|

|-----------------------------|

How this song is played

Channel right Channel left x-times

Riff 1 - 2

Riff 1 Riff 2 2

Riff 2 Riff 2 2

Riff 3 - 1

Riff 1 - 2

Riff 1 Riff 2 2

Riff 2 Riff 2 2

Riff 3 - 1

Riff 1 - 6 1/2

Riff 4 which fades

Get this song at:  amazon.com

Share your thoughts

0 Comments found