Ac Dc

Ac Dc - Fire Your Guns guitar tab

Fire Your Guns

Intro + theme:

E|-------------------------|---------------------|

B|-------------------------|---------------------|

G|-------2--2-----2--2--2--|--2-------2----------|

D|----2--2--2--2--2--2--2--|--2----2--2----------|

A|----3--0--0--3--0--0--0--|--0----3--0----------|

E|-------------------------|---------------------|

Verse:

wild beast...

|---------------------|---------------------|

|---------------------|---------------------|

|---------------------|---------------------|

|------------2--2--2--|--2----2--2----------|

|------------0--0--0--|--0----3--0----------|

|---------------------|---------------------|

Chorus: fire...

|---------------------|---------------------|

|-----------3---------|---------------------|

|--0--------2----2----|--5----5--2----------|

|--0--------0----2----|--5----5--2----------|

|-----------0----0----|--3----3--0----------|

|--3------------------|---------------------|

fire...

|---------------------|---------------------|

|-----------3---------|---------------------|

|--0--------2----2----|--5----5--2----------|

|--0--------0----2----|--5----5--2----------|

|-----------0----0----|--3----3--0----------|

|--3------------------|---------------------|

fire...

|---------------------|---------------------|--------------------|

|-----------3---------|---------------------|--------------------|

|--0--------2----2----|--5----5--2----------|--9--------7--------|

|--0--------0----2----|--5----5--2----------|--9--------7--------|

|-----------0----0----|--3----3--0----------|--7--------5--------|

|--3------------------|---------------------|--------------------|

fire your

|--------------------|--------------------|--------------------|

|--------------------|--------------------|--------------------|

|--7--------5--------|--5--------5--------|--2-----------------|

|--7--------5--------|--5--------5--------|--2--------5--------|

|--4--------3--------|--3--------2--------|--0--------5--------|

|--------------------|--------------------|-----------3--------|

guns fire your guns

|-------------------------|---------------------|-------------------------|

|-------------------------|---------------------|-------------------------|

|-------2--2-----2--2--2--|--2-------2----------|-------2--2-----2--2--2--|

|----2--2--2--2--2--2--2--|--2----2--2----------|----2--2--2--2--2--2--2--|

|----3--0--0--3--0--0--0--|--0----3--0----------|----3--0--0--3--0--0--0--|

|-------------------------|---------------------|-------------------------|

to verse:

|---------------------|------------------|

|---------------------|------------------|

|--2-------2----------|------------------|

|--2----2--2----------|------------------|

|--0----3--0----------|------------------|

|---------------------|------------------|

to solo part:

|--------------------|---------------------|

|--------------------|---------------------|

|--7------------5----|--5----5--2----------|

|--7------------5----|--5----5--2----------|

|--5------------3----|--3----2--0----------|

|--------------------|---------------------|

|--------------------|---------------------|

|--------------------|---------------------|

|--7------------5----|--5----5--2----------|

|--7------------5----|--5----5--2----------|

|--5------------3----|--3----2--0----------|

|--------------------|---------------------|

|--------------------|---------------------|--------------------|

|--------------------|---------------------|--------------------|

|--7------------5----|--5----5--2----------|--7------------5----|

|--7------------5----|--5----5--2----------|--7------------5----|

|--5------------3----|--3----2--0----------|--5------------3----|

|--------------------|---------------------|--------------------|

|---------------------|-------------------------|---------------------|

|---------------------|-------------------------|---------------------|

|--5----5--2----------|-------2--2-----2--2--2--|--2-------2----------|

|--5----5--2----------|----2--2--2--2--2--2--2--|--2----2--2----------|

|--3----2--0----------|----3--0--0--3--0--0--0--|--0----3--0----------|

|---------------------|-------------------------|---------------------|

Tablature by Clemens Fehlow.

Published for the first time on AC/DC Tablature page - "http://www.badboyboogie.de".

Get this song at:  amazon.com sheetmusicplus.com

Share your thoughts

0 Comments found