Ac Dc

Ac Dc - Fire Your Guns bass tab

-

Standard Tuning

(Intro) - From (0.10 - 0.39)

G:----------|----------|----------|----------|

D:----------|----------|----------|----------|

A:0-0-0-0-0-|0-0-0-0-0-|0-0-0-0-0-|0-0-0-0-0-|

E:----------|----------|----------|----------|

G:----------|----------|----------|----------|----------|

D:----------|----------|----------|2--0------|----------|

A:-------3--|-------3--|-------3--|------4--3|3--2--0---|

E:3--2-3---5|3--2-3---5|3--2-3---5|----------|---------3|

From (0.52 - 1.21)

G:----------|----------|----------|----------|

D:----------|----------|----------|----------|

A:0-0-0-0-0-|0-0-0-0-0-|0-0-0-0-0-|0-0-0-0-0-|

E:----------|----------|----------|----------|

G:----------|----------|----------|----------|----------|

D:----------|----------|----------|2--0------|----------|

A:-------3--|-------3--|-------3--|------4--3|3--2--0---|

E:3--2-3---5|3--2-3---5|3--2-3---5|----------|---------3|

From (1.33 - 1.43)

G:----------|----------|----------|----------|

D:----------|----------|----------|----------|

A:0-0-0-0-0-|0-0-0-0-0-|0-0-0-0-0-|0-0-0-0-0-|

E:----------|----------|----------|----------|

G:----------|----------|----------|----------|

D:----------|----------|----------|----------|

A:3-5555-3-0|3-5555-3-0|3-5555-3-0|3-5555-3-0|

E:----------|----------|----------|----------|

From (1.53 - 2.12)

G:----------|----------|----------|----------|

D:----------|----------|----------|----------|

A:0-0-0-0-0-|0-0-0-0-0-|0-0-0-0-0-|0-0-0-0-0-|

E:----------|----------|----------|----------|

G:----------|----------|----------|----------|----------|

D:----------|----------|----------|2--0------|----------|

A:-------3--|-------3--|-------3--|------4--3|3--2--0---|

E:3--2-3---5|3--2-3---5|3--2-3---5|----------|---------3|

From (2.24 - 2.41)

G:----------|----------|----------|----------|

D:----------|----------|----------|----------|

A:0-0-0-0-0-|0-0-0-0-0-|0-0-0-0-0-|0-0-0-0-0-|

E:----------|----------|----------|----------|

(Outro)

G:----------|----------|----------|----------|-----|

D:----------|----------|----------|----------|-----|

A:3--0--3--0|3--0--3--0|3--0--3--0|0--3--0---|0----|

E:----------|----------|----------|----------|-----|

Get this song at:  amazon.com

Share your thoughts

0 Comments found