Ac Dc

Ac Dc - Evil Walks guitar tab

Evil Walks

Intro:

|--------------------|-----------------------|---------0------------|

|--------------------|--------------3-----2--|------2--0------------|

|--------------1--1--|---------4-------4--2--|------2---------1--1--|

|--------------2--2--|------2----------------|----------------2--2--|

|--------------2--2--|-----------------------|----------------2--2--|

|--------------0--0--|-----------------------|----------------0--0--|

3rd time:

|-----------------------|-------------------|----------3--------2--|

|--------------3-----2--|--------0----------|-----3----3--------3--|

|---------4-------4--2--|--------0----------|--1--2----0--------2--|

|------2-------------2--|--------0----------|--2--0----0--------0--|

|--------------------0--|-------------------|--2-------2--------0--|

|-----------------------|--------3----------|--0--2----3-----------|

|-------------------|----------3--3----3--2--|------------------|

|--------2----------|-----3----3--3----3--3--|------------------|

|--------2----------|--1--2----0--0----0--2--|------------------|

|--------2----------|--2--0----0--0----0--0--|------------------|

|--------0----------|--2-------2--2----2--0--|------------------|

|-------------------|--0--2----3--3----3-----|------------------|

Verse guitar 1:

|-----------------------------|-----------10--------------|

|-9-10--9----9----------------|---------------------------|

|----9--9----9--11----11---9--|--------9--------9------9--|

|-9-11--9----9--12----12--11--|----11--------------11--9--|

|-----------------------------|---------------------------|

|-----------------------------|---------------------------|

Verse guitar 2:

|-------------------------|------------------------|

|---5--5----5--3----3--2--|----------3----2--------|

|-4-6--4----4--2----2--2--|----------2----2--------|

|----------------------2--|-------2--4----2--------|

|-------------------------|----4-------------4-----|

|-------------------------|---------------------0--|

Tablature by Clemens Fehlow.

Get this song at:  amazon.com sheetmusicplus.com

Share your thoughts

0 Comments found