Ac Dc

Ac Dc - Evil Walks bass tab

Standard Tuning

(Intro)

G:------------------------|

D:------------------------|

A:------------------------|

E:0-0----0-0----0-0----0-0|

G:------------------------------|

D:------------------------------|

A:------------------------------|

E:5-3--0-3--3--5-5--0-3--3-3-3-5|

G:---------------------|

D:---------------------| x5

A:---------------------|

E:0(8)--5(8)--0(8)--5(8)

G:--------------|

D:--------------|

A:------4-5--5-0|

E:0-0-0---------|

G:--------------|

D:----4-5-5-0---| x4

A:5-5----------5|

E:--------------|

G:----------------------|

D:----------------------| x2

A:----------------------|

E:0(8)--5(8)--0(8)--5(8)|

G:-----------------------------|

D:-----------------------------|

A:----4h5h7p 5p40--------------|

E:0(8)------------0-0-0-0-3-3-5|

(Chorus)

G:--------------|

D:----4-5--5----| x4

A:7-7--------5-0|

E:--------------|

(During Solo)

G:------------------------|

D:------------------------|

A:------------------------|

E:0-0-0-0-0-0-0-0--5-5-3-3|

G:------------------------|

D:------------------------|

A:------------------------|

E:0-0----0-0----0-0----0-0|

G:--------------------------------|

D:--------------------------------|

A:-----------5-7-------5-7--------|

E:0-0--0-0-0-----0-0-0-----5-3-0-0|

G:--------------------------------|

D:--------------------------------|

A:--------------------------------|

E:0-0----0-0-5-3-0--5-3-0--5-3-0-0|

G:------------------------|

D:------------------------|

A:----4-5-7-7-5-0---------|

E:0-0-------------5-3-0-0-|

G:------------------------|

D:------------------------|

A:5-3-----5-3-----5-3-----|

E:----0-0-----0-0-----0-0-|

G:--------------|

D:----4-5--5----| x8

A:7-7--------5-0| (slow on the

E:--------------| 8th time)

(Outro)

G:--------------|

D:--------------|

A:5-------------|

E:---5~--------5|

Get this song at:  amazon.com

Share your thoughts

0 Comments found