Ac Dc

Ac Dc - Dt guitar tab

Song:DT

Album: Who Made Who

Written By: Angus & Malcolm Young

Tabbed by: Jason Bineider (bineidee@cadvision.com)

____Legend____

| |

| Vibrato, ^^^ |

| Slide up, / |

|______________|

Riff 1 (play 4x) Riff 2 (x4)

|---------------------------^^^--^^^-------------|--------------------|

|---------------------------8----5----5--2-------|--------------------|

|·--7---7--5--7-------------8----6----------3---·|·--7---7--5--7--/--·|

|---7---7--5--7----------------------------------|---7---7--5--7--/---|

|·--5---5--5--5---------------------------------·|·--5---5--5--5--/--·|

|-------------------1-/-3------------------------|--------------------|

Riff 3 (play 3x) (play 3x)

|------------------|---------------|---------------------------|-------------

|------------------|---------------|---------------------------|-------------

|·-------------5---|---------------|----------3---------------·|-------------

|--------------5---|-----------3---|----------3------------3---|-------------

|·---------1---3---|---1-------3---|----------1------------3--·|---------3---

|---1-/-3----------|-------3---1---|--1---3--------1---3---1---|--3-/-5------

--------------------|-------------^^^-|---------------|----------^^^-------

--------------------|-----------------|---------------|--------------------

----7---7--5--7--/--|-------------5---|---------------|----------3---------

----7---7--5--7--/--|-------------5---|-----------3---|----------3---------

----5---5--5--5--/--|---------1---3---|---1-------3---|----------1---------

--------------------|--1-/-3----------|-------3---1---|--1---3-------1--3--

Malcolm plays riff 1 over solo

-----|-------------|

-----|-------------|

-----|-------------|

--3--|Guitar Solo--|

--3--|-------------|

--1--|-------------|

Get this song at:  amazon.com

Share your thoughts

0 Comments found