Ac Dc

Ac Dc - Dog Eat Dog bass tab

Intro

G|--------------------------------------|

D|--------------------------------------|

A|--------5-------------5---------------|

E|--0--5----------0—-5------------------|

Verse

G|--------------------------------------|

D|--------------------------------------|

A|--------------------------------------|

E|-5-5-5-5-5-5-5-5-5-5-5-5-5-5-5-5-5-5-5| Repeat the whole Verse

Pre-Chorus (Hey hey hey)

G|-----------------|

D|-----------------|

A|-----------------|

E|-7-7-7-7-7-7-7-7-| x4

Chorus

G|--------------------------------------|

D|--------------------------------------|

A|--------5-------------5---------------|

E|--0--5----------0—-5------------------|

Verse

G|--------------------------------------|

D|--------------------------------------|

A|--------------------------------------|

E|-5-5-5-5-5-5-5-5-5-5-5-5-5-5-5-5-5-5-5|

Pre-Chorus (Hey hey hey)

G|-----------------|

D|-----------------|

A|-----------------|

E|-7-7-7-7-7-7-7-7-| x4

Chorus

G|--------------------------------------|

D|--------------------------------------|

A|--------5-------------5---------------|

E|--0--5----------0—-5------------------|

Solo

G|--------------------------|

D|--------------------------|

A|--------------------------|

E|-5-5-5-5-5-5-5-5----5—-5--| x2

G|--------------------------|

D|--------------------------|

A|--------------------------|

E|-7-7-7-7-7-7-7-7----7—-7--| x2

G|--------------------------|

D|--------------------------|

A|--------------------------|

E|-5-5-5-5-5-5-5-5----5—-5--| x2

G|--------------------------------------|

D|--------------------------------------|

A|--------5-------------5---------------|

E|--0--5----------0—-5------------------|

Verse

G|--------------------------------------|

D|--------------------------------------|

A|--------------------------------------|

E|-5-5-5-5-5-5-5-5-5-5-5-5-5-5-5-5-5-5-5|

Pre-Chorus (Hey hey hey)

G|-----------------|

D|-----------------|

A|-----------------|

E|-7-7-7-7-7-7-7-7-| x4

Chorus

G|--------------------------------------|

D|--------------------------------------|

A|--------5-------------5---------------|

E|--0--5----------0—-5------------------|

Outro

G|--------------------------------------|

D|--------------------------------------|

A|--------------------------------------|

E|-5-5-5-5-5-5-5-5-5-5-5-5-5-5-5-5-5-5-5| (like Verse)

Get this song at:  amazon.com sheetmusicplus.com

Share your thoughts

0 Comments found