Ac Dc

Ac Dc - Dirty Eyes bass tab

AC/DC-Dirty Eyes

Volts (1997)

Tabbed by:playinbass1432

Email: playinbass1432@hotmail.com

Standard tuning, sharped slightly.

Intro: (0:08)

A A C D C

G|-----------------|-----------------|-----------------|-----------------|

D|-----------------|-----------------|-----------------|-----------------|

A|-----------------|-----------------|-----------------|---0-3-0-5-0-3-0-|

E|-5---------------|-----------------|-5---------------|-----------------|

A C D C A C D C

G|-----------------|-----------------|-----------------|-----------------|

D|-----------------|-----------------|-----------------|-----------------|

A|-----------------|-----3-0-5-0-3-0-|-----------------|-----3-0-5-0-3-0-|

E|-5-5-5-5-5-5-5-5-|-5-5-------------|-5-5-5-5-5-5-5-5-|-5-5-------------|

A C D C A C D C

G|-----------------|-----------------|-----------------|-----------------|

D|-----------------|-----------------|-----------------|-----------------|

A|-----------------|-----3-0-5-0-3-0-|-----------------|-----3-0-5-0-3-0-|

E|-5-5-5-5-5-5-5-5-|-5-5-------------|-5-5-5-5-5-5-5-5-|-5-5-------------|

Verse 1:

A C D C A C D C

G|-----------------|-----------------|-----------------|-----------------|

D|-----------------|-----------------|-----------------|-----------------|

A|-----------------|-----3-0-5-0-3-0-|-----------------|-----3-0-5-0-3-0-|

E|-5-5-5-5-5-5-5-5-|-5-5-------------|-5-5-5-5-5-5-5-5-|-5-5-------------|

A C D C A C D C

G|-----------------|-----------------|-----------------|-----------------|

D|-----------------|-----------------|-----------------|-----------------|

A|-----------------|-----3-0-5-0-3-0-|-----------------|-----3-0-5-0-3-0-|

E|-5-5-5-5-5-5-5-5-|-5-5-------------|-5-5-5-5-5-5-5-5-|-5-5-------------|

A C D C A C D C

G|-----------------|-----------------|-----------------|-----------------|

D|-----------------|-----------------|-----------------|-----------------|

A|-----------------|-----3-0-5-0-3-0-|-----------------|-----3-0-5-0-3-0-|

E|-5-5-5-5-5-5-5-5-|-5-5-------------|-5-5-5-5-5-5-5-5-|-5-5-------------|

A C D C A

G|-----------------|-----------------|-----------------|-----------------|

D|-----------------|-----------------|-----------------|-----------------|

A|-----------------|-----3-0-5-0-3-0-|-----------------|-----------------|

E|-5-5-5-5-5-5-5-5-|-5-5-------------|-5-5-5-5-5-5-5-5-|-5-5-5-5-5-5-5-5-|

Pre Chorus:

D E

G|-----------------|-----------------|-----------------|

D|-----------------|-----------------|-----------------|

A|-5---5---5---5-5-|-5-5-5-5-5-7---7-|--7--7-7-7-7-7-7-|

E|-----------------|-----------------|-----------------|

Chorus 1:

A G F# A G F# A

G|-----------------|-----------------|-----------------|-----------------|

D|-7-----7-------5-|--4---5--7-----7-|-------5---4---5-|-7-----7-------5-|

A|-----------------|-----------------|-----------------|-----------------|

E|-----------------|-----------------|-----------------|-----------------|

F# G F# G G#

G|-----------------|

D|--4---5---4--5-6-|

A|-----------------|

E|-----------------|

Verse 2:

A C D C A C D C

G|-----------------|-----------------|-----------------|-----------------|

D|-----------------|-----------------|-----------------|-----------------|

A|-----------------|-----3-0-5-0-3-0-|-----------------|-----3-0-5-0-3-0-|

E|-5-5-5-5-5-5-5-5-|-5-5-------------|-5-5-5-5-5-5-5-5-|-5-5-------------|

A C D C A C D C

G|-----------------|-----------------|-----------------|-----------------|

D|-----------------|-----------------|-----------------|-----------------|

A|-----------------|-----3-0-5-0-3-0-|-----------------|-----3-0-5-0-3-0-|

E|-5-5-5-5-5-5-5-5-|-5-5-------------|-5-5-5-5-5-5-5-5-|-5-5-------------|

A C D C A C D C

G|-----------------|-----------------|-----------------|-----------------|

D|-----------------|-----------------|-----------------|-----------------|

A|-----------------|-----3-0-5-0-3-0-|-----------------|-----3-0-5-0-3-0-|

E|-5-5-5-5-5-5-5-5-|-5-5-------------|-5-5-5-5-5-5-5-5-|-5-5-------------|

A C D C A

G|-----------------|-----------------|-----------------|-----------------|

D|-----------------|-----------------|-----------------|-----------------|

A|-----------------|-----3-0-5-0-3-0-|-----------------|-----------------|

E|-5-5-5-5-5-5-5-5-|-5-5-------------|-5-5-5-5-5-5-5-5-|-5-5-5-5-5-5-5-5-|

Pre Chorus:

D E

G|-----------------|-----------------|-----------------|

D|-----------------|-----------------|-----------------|

A|-5---5---5---5-5-|-5-5-5-5-5-7---7-|--7--7-7-7-7-7-7-|

E|-----------------|-----------------|-----------------|

Chorus 2:

A G F# A G F# A

G|-----------------|-----------------|-----------------|-----------------|

D|-7-----7-------5-|--4---5--7-----7-|-------5---4---5-|-7-----7-------5-|

A|-----------------|-----------------|-----------------|-----------------|

E|-----------------|-----------------|-----------------|-----------------|

F# G F# G G#

G|-----------------|

D|--4---5---4--5-6-|

A|-----------------|

E|-----------------|

Guitar Solo:

A C D C A C D C

G|-----------------|-----------------|-----------------|-----------------|

D|-----------------|-----------------|-----------------|-----------------|

A|-----------------|-----3-0-5-0-3-0-|-----------------|-----3-0-5-0-3-0-|

E|-5-5-5-5-5-5-5-5-|-5-5-------------|-5-5-5-5-5-5-5-5-|-5-5-------------|

A C D C A

G|-----------------|-----------------|-----------------|-----------------|

D|-----------------|-----------------|-----------------|-----------------|

A|-----------------|-----3-0-5-0-3-0-|-----------------|-----------------|

E|-5-5-5-5-5-5-5-5-|-5-5-------------|-5-5-5-5-5-5-5-5-|-5-5-5-5-5-5-5-5-|

D

G|-----------------|-----------------|-----------------|-----------------|

D|-----------------|-----------------|-----------------|-----------------|

A|-5---5---5---5-5-|-5-5-5-5-5-5-5-5-|-5-5-5-5-5-5-5-5-|-5-5-5-5-5-7---7-|

E|-----------------|-----------------|-----------------|-----------------|

E

G|-----------------|-----------------|-----------------|-----------------|

D|-----------------|-----------------|-----------------|---------------5-|

A|---7---7-7-7-7-7-|-7-7-7-7-7-7-7-7-|-7-7-7-7-7-7-7-7-|-----------------|

E|-----------------|-----------------|-----------------|-----------------|

F# G F# G G#

G|-----------------|

D|--4---5---4--5-6-|

A|-----------------|

E|-----------------|

Chorus 3/Outro:

A C D C A C D C

G|-----------------|-----------------|-----------------|-----------------|

D|-----------------|-----------------|-----------------|-----------------|

A|-----------------|-----3-0-5-0-3-0-|-----------------|-----3-0-5-0-3-0-|

E|-5-5-5-5-5-5-5-5-|-5-5-------------|-5-5-5-5-5-5-5-5-|-5-5-------------|

A C D C A C D C

G|-----------------|-----------------|-----------------|-----------------|

D|-----------------|-----------------|-----------------|-----------------|

A|-----------------|-----3-0-5-0-3-0-|-----------------|-----3-0-5-0-3-0-|

E|-5-5-5-5-5-5-5-5-|-5-5-------------|-5-5-5-5-5-5-5-5-|-5-5-------------|

A C D C A C D C

G|-----------------|-----------------|-----------------|-----------------|

D|-----------------|-----------------|-----------------|-----------------|

A|-----------------|-----3-0-5-0-3-0-|-----------------|-----3-0-5-0-3-0-|

E|-5-5-5-5-5-5-5-5-|-5-5-------------|-5-5-5-5-5-5-5-5-|-5-5-------------|

A C D C A C D C

G|-----------------|-----------------|-----------------|-----------------|

D|-----------------|-----------------|-----------------|-----------------|

A|-----------------|-----3-0-5-0-3-0-|-----------------|-----3-0-5-0-3-0-|

E|-5-5-5-5-5-5-5-5-|-5-5-------------|-5-5-5-5-5-5-5-5-|-5-5-------------|

A C D C A C D C

G|-----------------|-----------------|-----------------|-----------------|

D|-----------------|-----------------|-----------------|-----------------|

A|-----------------|-----3-0-5-0-3-0-|-----------------|-----3-0-5-0-3-0-|

E|-5-5-5-5-5-5-5-5-|-5-5-------------|-5-5-5-5-5-5-5-5-|-5-5-------------|

A C D C A C D C

G|-----------------|-----------------|-----------------|-----------------|

D|-----------------|-----------------|-----------------|-----------------|

A|-----------------|-----3-0-5-0-3-0-|-----------------|-----3-0-5-0-3-0-|

E|-5-5-5-5-5-5-5-5-|-5-5-------------|-5-5-5-5-5-5-5-5-|-5-5-------------|

A C D C A C D C

G|-----------------|-----------------|-----------------|-----------------|

D|-----------------|-----------------|-----------------|-----------------|

A|-----------------|-----3-0-5-0-3-0-|-----------------|-----3-0-5-0-3-0-|

E|-5-5-5-5-5-5-5-5-|-5-5-------------|-5-5-5-5-5-5-5-5-|-5-5-------------|

A C D C A C D C

G|-----------------|-----------------|-----------------|-----------------|

D|-----------------|-----------------|-----------------|-----------------|

A|-----------------|-----3-0-5-0-3-0-|-----------------|-----3-0-5-0-3-0-|

E|-5-5-5-5-5-5-5-5-|-5-5-------------|-5-5-5-5-5-5-5-5-|-5-5-------------|

A C D C A C D C

G|-----------------|-----------------|-----------------|-----------------|

D|-----------------|-----------------|-----------------|-----------------|

A|-----------------|-----3-0-5-0-3-0-|-----------------|-----3-0-5-0-3-0-|

E|-5-5-5-5-5-5-5-5-|-5-5-------------|-5-5-5-5-5-5-5-5-|-5-5-------------|

A C D C A C D C

G|-----------------|-----------------|-----------------|-----------------|

D|-----------------|-----------------|-----------------|-----------------|

A|-----------------|-----3-0-5-0-3-0-|-----------------|-----3-0-5-0-3-0-|

E|-5-5-5-5-5-5-5-5-|-5-5-------------|-5-5-5-5-5-5-5-5-|-5-5-------------|

Get this song at:  amazon.com

Share your thoughts

0 Comments found