Ac Dc

Ac Dc - Deep In The Hole guitar tab

e|--------------------------------------------------------|

B|------------------------------------------------10^~~---|

G|-7/9-99\\7---7-6~~-------------7/9-99\\7---7-6~~----------|

D|-----99---7-7-7~~-7---------------99---7-7-7~~----------|

A|--------------------7-----------------------------------|

E|----------------------12\\0------------------------------|

e|----------------------------------------------|

B|----------------------------------------------|

G|-7/9-99\\7-------------------------------------|

D|-----99---7^-5--------------------------------|

A|---------------7~~7~~\\0---5--5--5>7~~---------|

E|----------------------------------------------|

e|---------12----------------------12--------------------------------------|

B|------12----15-12-15-12-------12-----15-12-15-12--------14^14^14^\\-------|

G|--14^---------------------14^--------------------14-12--14^14^14^\\12-----|

D|---------------------------------------------------------------------14~~|

A|-------------------------------------------------------------------------|

E|-------------------------------------------------------------------------|

Added by tabs-database.com and our distinguished partners

Get this song at:  amazon.com

Share your thoughts

0 Comments found