Ac Dc

Ac Dc - Danger guitar tab

AC/DC

Danger

Album:Fly On The Wall

tab by Voytazz

h-hammer on

^-bend up

^ ^ ^- bend three times

b-ghost bend

r-release

p-pull of

/ \ slide

Bass guitar intro(D|--0-0-0-0-0---etc.)

Intro &Verse1

"dont talk to strangers"....

-----2-2----3-2---------3-3-2-----2-2-3-----------------------|

-----3-3----3-3---------3-3-3-----3-3-3-----------------------|

-----2-2----0-2---------0-0-2-----2-2-0-----------------------|

-----0-0----0-0---------0-0-0-----0-0-0-----------------------|

------------2-----------2-2-----------2-----------------------|

------------3-----------3-3-----------3-----------------------|

Angus Chorus Riff

hold bend D bend

--12-12-12----------------------------------------------------|

--------------6-8-6-8--------------------------8-10-8-10\(8)--|

--------------5-7-5-7-7-----------12h14-14-14--7--9-7--9\(7)--|note in

----------------------7---------------------------------------|() is

--------------------------------------------------------------|sometimes

--------------------------------------------------------------|

played by Angus but you can play without it....

Malcolm Chorus Riff

e e e D5 G G G

--------------------------------------3-3-3------------------|

-----------------------3-------------3-3-3------------------|

-----------------------2-------------0-0-0------------------|

---2-2-2---------------0-------------0-0-0------------------|

---2-2-2------5-5-5-5----------------2-2-2------7-7-7-7-----|

---0-0-0------2-3-2-3----------------3-3-3------4-5-4-5-----|

Verse 2

e---------------------------------------------------------------------|

b--2-2-3-2----3-3-2----2-2-3------------------------------------------|

g--2-2-2-2----2-2-2----2-2-2------------------------------------------|

D--2-2-2-2----2-2-2----2-2-2------------------------------------------|

A--0-0-0-0----0-0-0----0-0-0------------------------------------------|

E---------------------------------------------------------------------|

Pre-solo

e---------------------------------------------------------------------|

b------6^---8-^-^-^---------------------------------------------------|

g------8^---10-^-^-^--------------------------------------------------|

D---------------------------------------------------------------------|

A---------------------------------------------------------------------|

E---------------------------------------------------------------------|

Solo

e---------------------------------------------------------------------|

b---4b6-4b6r4---7^--4^----4b6-r4-6p4----------------------------------|

g---------------9^--6^---------------6/8-----8~-----------------------|

D---------------------------------------------------------------------|

A---------------------------------------------------------------------|

E---------------------------------------------------------------------|

e-------------------------------------------------------------------------|

b---6-8--------------------------------------15-----15----15--------------|

g-------7~------10b12-r10\------17^-17^-17^-----17-----17---18-17-15---15-|

D--------------------------------------------------------------------17---|

A-------------------------------------------------------------------------|

E-------------------------------------------------------------------------|

e----------------------------20^----20h22------20h22--20h22--20h22-----|

b----20-22-20-22~---22-20h22---------------------------------------19^-|

g--22------------------------------------------------------------------|

D----------------------------------------------------------------------|

A----------------------------------------------------------------------|

E----------------------------------------------------------------------|

e------------20^----------------------------------|

b-------------------------------------------------|

g-------------------17-15-17-15-14^-----17-15-14\-|

D-------------------------------------------------|

A-------------------------------------------------|

E-------------------------------------------------|

Order:

Intro x3

Chorus Riffs x4

Verse 1 x4

Verse 2 x2

Chorus x4

Verse 1 x4

Verse 2 x2

Chorus x4

pre-solo

Solo

Play chorus and make a nice end!!!

Hail to AC/DC!

Get this song at:  amazon.com sheetmusicplus.com

Share your thoughts

0 Comments found