Ac Dc

Ac Dc - D T guitar tab

Key:

\ - Slide

. - Repeat

-------------------------------------------------

--------------------------------4---3------------

·--5---5--3--5-\-------------3--3---3---5--2----·

---5---5--3--5-\----------5------------------3---

·--3---3--3--3-\--------------------------------·

-------------------------------------------------

--------------------

--------------------

·--5---5--3--5-\---·

---5---5--3--5-\----

·--3---3--3--3-\---·

--------------------

Riff 3 (play 3x) (play 3x)

E---------------------------------------------------

b---------------------------------------------------

G---------------------------------------------------

D---------------------------------------------------

A------1--3------1-----------------1----------------

E---3--------------3--1------1--3---------1--3--1---

Vx3

E------------------------

B------------------------

G--------.---5--5--3-\---

D--------.---5--5--3-\---

A-----1------3--3--3-\---

E--3---------------------x3

solos rythem

E--------------------------then the other Rhythm

B---------------4----3--1--

G--5--3--5-\----3----3--2--

D--5--3--5-\----5----3--3--

A--3--3--3-\---------------

E--------------------------

outro ...fade out

E--------------------------------------------

B-------------------------------3------------

G------------------------4------3--5--2------

D--5---5--3--5-----------3------3--------3---

A--5---5--3--5----3--3---5-------------------

E--------------------------------------------x8fade out

Get this song at:  amazon.com sheetmusicplus.com

Share your thoughts

0 Comments found