Ac Dc

Ac Dc - Cant Stop Rock-n-roll guitar tab

To: xfactor@start.no

Subject: here's a tab of Can't Stop Rock 'n' Roll..

Can't Stop Rock 'n' Roll

Intro:

E|----------------------------

B|-------3----3----1----------

G|--2----0----2----0----2--5--

D|--2----0----0----2----2--5--

A|--0---------0----3----0--3--

E|-------3--------------------

E|----------------------------------------------------

B|----------------------------------------------------

G|----------------------------------------------------

D|--7--7--7--7-7--7-7--7--7--7--7--7--7-7--7-7--7--7--

A|--0--0--0--0-0--0-0--0--0--0--0--0--0-0--0-0--0--0--

E|----------------------------------------------------

Repeat 4 times

E|-----------------------------------------------------

B|-----------------------------------------------------

G|-----------------------------------------------------

D|---------------------------9\8\7--7--7-7--7-7--7--7--

A|--7--7--7---7-7-5-5--5--5--7\5\5--5--5-5--5-5--5--5--

E|--5--5--5---5-5-3-3--3--3----------------------------

Verse:

Don't you give... better run...

|-----------------------------------------------------

|-----------------------------------------------------

|----2--------7--5----2--5----2---------7--5----2--5--

|----2--5---5-7--5----2--5----2--5---5--7--5----2--5--

|----0--5---5-5--3----0--3----0--5---5--5--3----0--3--

|-------3---3--------------------3---3----------------

just like a... so don't give...

|-------------------------------------------------------

|-------------------------------------------------------

|----2--------7--5-----2--5------2--------7--5----2--5--

|----2--5---5-7--5-----2--5------2--5---5-7--5----2--5--

|----0--5---5-5--3-----0--3------0--5---5-5--3----0--3--

|-------3---3-----------------------3---3---------------

don't you give... ...give me no lies

|-----------------------------------------------------------------

|-----------------------------------------------------------------

|---------------2--2-------------------------7----7--7-7--7-7--7--

|--3--3---------2--2-------3--3------5--5----7----7--7-7--7-7--7--

|--3--3---------0--0-------3--3------5--5----5----5--5-5--5-5--5--

|--1--1--------------------1--1------3--3-------------------------

Chorus:

you can't stop rock 'n' roll

|-----------------------------------------------------

|-----------------------------------------------------

|-----------------------------------------------------

|--7---------------------------9\8\7--7--7-7--7-7--7--

|--5--7--7--7---7-7-5-5--5--5--7\6\5--5--5-5--5-5--5--

|-----5--5--5---5-5-3-3--3--3-------------------------

you can't stop rock 'n' roll to verse:

|--------------------------------------------------------

|--------------------------------------------------------

|--------------------------------------------------------

|--7---------------------------9\8\7--7--7-7--7-7--7--7--

|--5--7--7--7---7-7-5-5--5--5--7\6\5--5--5-5--5-5--5--5--

|-----5--5--5---5-5-3-3--3--3----------------------------

after 2nd chorus:

|--------------------------------------------------------

|--------------------------------------------------------

|--------------------------------------------------------

|--2--2--2--2-2-2-5-5--5--5-5--5-7-7--7--7-7--7-7--7--7--

|--0--0--0--0-0-0-3-3--3--3-3--3-5-5--5--5-5--5-5--5--5--

|--------------------------------------------------------

|--------------------------------------------------------

|--------------------------------------------------------

|--------------------------------------------------------

|--2--2--2--2-2-2-5-5--5--5-5--5-7-7--7--7-7--7-7--7--7--

|--0--0--0--0-0-0-3-3--3--3-3--3-5-5--5--5-5--5-5--5--5--

|--------------------------------------------------------

|--------------------------------------------------------

|--------------------------------------------------------

|--------------------------------------------------------

|--2--2--2--2-2-2-5-5--5--5-5--5-7-7--7--7-7--7-7--7--7--

|--0--0--0--0-0-0-3-3--3--3-3--3-5-5--5--5-5--5-5--5--5--

|--------------------------------------------------------

riffs on solo:

|--------------------------------------------------------------------

|--------------------------------------------------------------------

|----2--------7--5-------2--5-------------2--------------------2--5--

|----2--5---5-7--5-------2--5-------------0--3------3--5-------2--5--

|----0--5---5-5--3-------0--3-------------0--3------3--5-------0--3--

|-------3---3--------------------------------1------1--3-------------

|-----------------------------------------------------------------------

|-----------------------------------------------------------------------

|--2--------------------2--5-------2--------------------2--5------2--5--

|--0--3------3--5-------2--5-------0--3------3--5-------2--5------2--5--

|--0--3------3--5-------0--3-------0--3------3--5-------0--3------0--3--

|-----1------1--3---------------------1------1--3-----------------------

|----------------------------------------------------------------------

|----------------------------------------------------------------------

|--2---------------------7----7--7-7--7-7--7--7--7--7--7--7-7--7-7--7--

|--0--3------3--5--------7----7--7-7--7-7--7--7--7--7--7--7-7--7-7--7--

|--0--3------3--5--------5----5--5-5--5-5--5--5--5--5--5--5-5--5-5--5--

|-----1------1--3------------------------------------------------------

you can't stop...(chorus)

|------------------------------

|------------------------------

|------------------------------

|--7--2--2--2---2-2------------

|--5--0--0--0---0-0-5-5--5--5--

|-------------------3-3--3--3--

Tabbed by Steven Taylor - Y2J_Walls_Of_Jericho@hotmail.com

Get this song at:  amazon.com

Share your thoughts

0 Comments found