Ac Dc

Ac Dc - Can I Sit Next To You Girl bass tab

Artist: AC/DC

Song: Can I Sit Next To You Girl

Album: High Voltage

Intro

G----------------------------------------------------------------------------------------

D----------------------------------------------------------------------------------------

A-0-----1-----2-2-2-2-------3-3-3-3-------0-1-2-3--3-3-3-3-----1-1-1-1-----3-3-3-3-3-----

E----------------------------------------------------------------------------------------

G----------------------------------------------------

D----------------------------------------------------

A-1-1-1-1-----3-3-3-3-----0-1-2-3--------------------

E----------------------------------------------------

Verse

G-------------------------------------------------------------------------------------------

D-------------------------------------------------------------------------------------------

A-3-3-3-3-----11--33--11--33--3-3-3-3-----11-33-55-33--3-3-3-3-----3-4-5-5-5-5-5-----5-4--3-

E-------------------------------------------------------------------------------------------

G-----------------------------------------------------------

D-----------------------------------------------------------

A-3-3-3-3--5-4-3-2-1-0--------------------------------------

E---------------------------4-3-----------------------------

Chorus

G----------------------------------------------------------

D----------------------------------------------------------

A-0-0-0-0----1-1-1-1------2-2-2-2-----3-3-3-3------0-1-2-3-

E----------------------------------------------------------

Solo & Outro

G-----------------------------------------------------------------------------------

D-----------------------------------------------------------------------------------

A-3-3-3-3-----11--33--11--33--3-3-3-3-----11-33-55-33-44-22-33-11-3-3-3-3-----1---2-

E-----------------------------------------------------------------------------------

G------------------------------

D------------------------------

A-3-3-3-3-----5-5-5-5----5-3-x8

E------------------------------

Get this song at:  amazon.com sheetmusicplus.com

Share your thoughts

0 Comments found