Ac Dc

Ac Dc - C O D guitar tab

Intro + Verse:

|--3----------------|-------------------|-------------------|------------------|

|--3----------------|----------------6--|----5--------------|------------------|

|--0----------------|----------------5--|----5--------------|------------------|

|--0----------------|----------------7--|----5--------------|------------------|

|-------------------|-------------------|-------------------|------------------|

|--3----------------|-------------------|-------------------|------------------|

|--3--------------3--|-------------------|-------------------|------------------|

|--3--------------3--|----------------6--|----5--------------|------------------|

|--0--------------0--|----------------5--|----5--------------|------------------|

|--0--------------0--|----------------7--|----5--------------|------------------|

|--------------------|-------------------|-------------------|------------------|

|--3--------------3--|-------------------|-------------------|------------------|

Chorus: C. O. D....

|-------------------|------------------------|----------------------|

|-------------------|---------------------6--|------6----6--5-------|

|----------------0--|--3--5--0--3----0----5--|------5----5--5----0--|

|----------------0--|--3--5--0--3----0----7--|------7----7--5----0--|

|-------------------|------------------------|----------------------|

|-------------------|------------------------|----------------------|

C. O. D.... C. O. D....

|------------------------|----------------------|------------------------|

|---------------------6--|------6----6--5-------|---------------------6--|

|--3--5--0--3----0----5--|------5----5--5----0--|--3--5--0--3----0----5--|

|--3--5--0--3----0----7--|------7----7--5----0--|--3--5--0--3----0----7--|

|------------------------|----------------------|------------------------|

|------------------------|----------------------|------------------------|

|----------------------|----------------------|------------------|------------------|

|------6----6--5----3--|------3----3--1----5--|------------------|------------------|

|------5----5--5----3--|------3----3--2----5--|------------------|------------------|

|------7----7--5----3--|------3----3--3----5--|------------------|------------------|

|-------------------1--|------1----1--0----3--|------------------|------------------|

|----------------------|----------------------|------------------|------------------|

Get this song at:  amazon.com sheetmusicplus.com

Share your thoughts

0 Comments found