Ac Dc

Ac Dc - C O D bass tab

:----------|----------|----------|----------|

D:----------|----------|----------|----------|

A:---1--3--1|---1--3--1|---1--3--1|1-1-----3~|

E:3---------|3---------|3---------|----3-1---|

(0.51)

G:----------|----------|----------|----------|

D:----------|----------|----------|----------|

A:----------|----------|----------|----------|

E:3--3--3--3|3--3--3--3|3--3--3--3|3--3--3--3|

G:----------|----------|----------|----------|

D:----------|----------|----------|----------|

A:3--3--3--3|3--3--3--3|3--3--3--3|3--3--3--3|

E:----------|----------|----------|----------|

G:----------|----------|----------|----------|

D:----------|----------|----------|----------|

A:----------|----------|----------|------1--2|

E:3--3--3--3|3--3--3--3|3--3--3--3|3--3------|

G:----------|----------|----------|----------|

D:----------|----------|----------|----------|

A:3--3--3--3|3--3--3--3|3--3--3--3|3--3--3--3|

E:----------|----------|----------|----------|

(Chorus)

G:----------|----------|----------|----------|----------|----------|

D:----------|----------|----------|----------|----------|----------|

A:---1-3---1|---------3|---1-3---1|---------3|---1-3---1|---------3|

E:3------3--|-1-1-1-1--|3------3--|-1-1-1-1--|3------3--|-1-1-1-1--|

G:---------------3-2----------------|

D:-------------------3-2-2-3-2-3----|

A:1-1-1-1-----3------------------3--|

E:--------3-1----------------------3|

G:---------------------|

D:3-------3------------| x4

A---3-0-1---3-3-3-3-3-3|

E:---------------------|

G:----------|----------|----------|----------|

D:----------|----------|----------|----------|

A:----------|----------|----------|----------|

E:3--3--3--3|3--3--3--3|3--3--3--3|3--3--3--3|

(2.13)

G:---------| |-----------|

D:---------| x4 |-----------|

A:--1-3---1| |----------3|

E:3-----3--| |1-1-1-1-1--|

G:----------------|

D:-----3-3-3-3-2--|

A:---------------3|

E:3(8)------------|

(Outro)

G:------------------------|

D:---------3--3--3--------|

A:------------------3-----|

E:3--3--3---------------3~|

Get this song at:  amazon.com

Share your thoughts

0 Comments found