Ac Dc

Ac Dc - Burning Alive guitar tab

burnin alive

acdc

Ballbreaker album

angus and malcolm young

tabbed by Barrett Moore

Intro: /bass drum kicks in

1-------------------------------------------------

2-------------------------------------------------

3--6--x2----4--x6-----2-----4--6--------2----4-6--

4--6--x2-2--4--x6--2--2--2--4--6--------2-2--4-6--

5--4--x0-2--2--x4--2--0--2--2--4--------0-2--2-4--

6--------0---------0-----0--------0-2-4---0-------

------------------------------------------------------

------------------------------------------------------

-------2----------4-4-4-6-6-6-6-6-------2-2-2---4-4-4-

-------2-2--------4-4-4-6-6-6-6-6-------2-2-2-2-4-4-4-

-------0-2--------2-2-2-4-4-4-4-4-------0-0-0-2-2-2-2-

-0-2-4---0--0-2-4-----------------0-2-4-------0-------

-------------------------------------------------------

-------------------------------------------------------

-------4-4-4-xx-6-6-6-6-6-------2-2-2---4-------4-4-4x-

-------4-4-4-xx-6-6-6-6-6-------2-2-2-2-4-------4-4-4x-

-------2-2-2-xx-4-4-4-4-4-------0-0-0-2-2-------2-2-2x-

-0-2-4--------------------0-2-4-------0---0-2-4--------

Verse:

1----------------------

2----------------------

3-6---------6----------

4-6---------6----------

5-4-------2-4-------2--

6---0-2-4-----0-2-4----

Build:

1-----------------------------------------------------

2-----------------------------------------------------

3-6-6-6-4-----------6-6-6-4-------------------6-6-6-4-

4-6-6-6-4--4-4-4-2--6-6-6-4--4-4-4-2----------6-6-6-4-

5-4-4-4-2--4-4-4-2--4-4-4-2--4-4-4-2-----2-4--4-4-4-2-

6----------2-2-2-0-----------2-2-2-0-2-4--------------

---------------------------

---------------------------

----------6-6-6-4----------

-4-4-4-2--6-6-6-4-2-2-4--2-

-4-4-4-2--4-4-4-2-2-2-4--2-

-2-2-2-0----------0-0-2--0-

Fill:

---------

---------

-x-x-x-x-

-x-x-x-x-

-x-x-x-x-

-x-x-x-x-

Chorus:

1--------------------------------------------------

2--------------------------------------------------

3-6-6-6-6-6-------2-2-2---4--------4-4-4-6-6-6-6-6-

4-6-6-6-6-6-------2-2-2-2-4--------4-4-4-6-6-6-6-6-

5-4-4-4-4-4-------0-0-0-2-2--------2-2-2-4-4-4-4-4-

6-----------0-2-4-------0----0-2-4-----------------

-----------------------------------------------------

-----------------------------------------------------

-------2-2-2---4-------4-4-4-6-6-6-6-6-4-4-4-4-2-2-2-

-------2-2-2-2-4-------4-4-4-6-6-6-6-6-4-4-4-4-2-2-2-

-------0-0-0-2-2-------2-2-2-4-4-4-4-4-2-2-2-2-0-0-0-

-0-2-4-------0---0-2-4-------------------------------

-------------------------

-------------------------

-6-6-6-6-6-4-4-4-4-2-2-2-

-6-6-6-6-6-4-4-4-4-2-2-2-

-4-4-4-4-4-2-2-2-2-0-0-0-

-------------------------

Build before solo:

1--------------

2--------------

3-6--4-4-4---6-

4-6--4-4-4-2-6-

5-4--2-2-2-2-4-

6----------0---

Solo:

1---------------------------------------------------------

2----12--------------------------------12b-12b-12b-12b-12-

3-11b--11bp9-----------------9----9----11b-11b------------

4---------------------------------------------------------

5------------9br-7-9-9br-7-9b--7-9--9---------------------

6------------------------------------9--------------------

-------------------------------------------9----------------

-10-12b-12-10----------------------11b-11b---12b-12b-12b-12-

--------------11br~----------------11b-11b------------------

---------------------11-9-11----9---------------------------

------------------------------11----------------------------

------------------------------------------------------------

---------------------------------------------

-9-12b-12-9----9-----------------------------

------------11---h11-11-9-9h11p9----9h11-11~~

---------------------------------11----------

---------------------------------------------

---------------------------------------------

Get this song at:  amazon.com

Share your thoughts

0 Comments found