Ac Dc

Ac Dc - Breaking The Rules guitar tab

Breaking The Rules

Intro:

|--------------------|--------------------|--------------------|

|--2-3---------------|--3-2---------------|--2-3---------------|

|--2-2---------------|--2-2---------------|--2-2---------------|

|--2-4---------------|--4-2---------------|--2-4---------------|

|--0-0---------------|--0-0---------------|--0-0---------------|

|--------------------|--------------------|--------------------|

|----------------3----|-------------------------|--------------------|

|--3-2-----------3----|--2-3---3----3-3-3--3----|--3-2---------------|

|--2-2-----------0----|--2-2---2----2-2-2--2----|--2-2---------------|

|--4-2-----------0----|--2-4---4----4-4-4--4----|--4-2---------------|

|--0-0----------------|--0-0---0----0-0-0--0----|--0-0---------------|

|----------------3----|-------------------------|--------------------|

|-------------------------|------------3---3-3---3----|

|--2-3---3----3-3-3--3----|--2-3-------3-3---3-3------|

|--2-2---2----2-2-2--2----|--2-2-------0-----2--------|

|--2-4---4----4-4-4--4----|--2-4-------0-----0-----2--|

|--0-0---0----0-0-0--0----|--0-0-------------------2--|

|-------------------------|------------3-----2-----0--|

Black sheep... hot feet...

|------------------------------|------------------------------|

|------------------------------|------------------------------|

|----------------5-5-5---------|----------------3-3-3---------|

|--7-7-7---------5-5-5---------|--5-5-5---------3-3-3---------|

|--4-4-4---------3-3-3---------|--2-2-2---------1-1-1---------|

|------------------------------|------------------------------|

| | |

|--5-5-5---6-5---3-3-3-6---5---|--3-3-3---4-3---1-1-1-4---3---|

|--5-5-5---6-5---5-5-5-5---5---|--3-3-3---4-3---3-3-3-3---3---|

|------------------------------|------------------------------|

|------------------------------|------------------------------|

|--4-4-4---4-4-3-3-3-3-3-------|--2-2-2---2-2-1-1-1-1-1---1---|

|----------------------------3-|----------------------------3-|

street jungle... examination's...

|------------------------------|------------------------------|

|------------------------------|------------------------------|

|----------------5-5-5---------|----------------3-3-3---------|

|--7-7-7---------5-5-5---------|--5-5-5---------3-3-3---------|

|--4-4-4---------3-3-3---------|--2-2-2---------1-1-1---------|

|------------------------------|------------------------------|

| | |

|--5-5-5---6-5---3-3-3-6---5---|--3-3-3---4-3---1-1-1-4---3---|

|--5-5-5---6-5---5-5-5-5---5---|--3-3-3---4-3---3-3-3-3---3---|

|------------------------------|------------------------------|

|------------------------------|------------------------------|

|--4-4-4---4-4-3-3-3-3-3-------|--2-2-2---2-2-1-1-1-1-1---1---|

|----------------------------3-|----------------------------3-|

ghetto bars... sneake thieves...

|------------------------------|------------------------------|

|------------------------------|------------------------------|

|----------------5-5-5---------|----------------3-3-3---------|

|--7-7-7---------5-5-5---------|--5-5-5---------3-3-3---------|

|--4-4-4---------3-3-3---------|--2-2-2---------1-1-1---------|

|------------------------------|------------------------------|

| | |

|--5-5-5---6-5---3-3-3-6---5---|--3-3-3---4-3---1-1-1-4---3---|

|--5-5-5---6-5---5-5-5-5---5---|--3-3-3---4-3---3-3-3-3---3---|

|------------------------------|------------------------------|

|------------------------------|------------------------------|

|--4-4-4---4-4-3-3-3-3-3-------|--2-2-2---2-2-1-1-1-1-1---1---|

|----------------------------3-|----------------------------3-|

no rebellion... I get my kicks...

|------------------------------|----------------|

|------------------------------|----------------|

|---------------5-5-5----------|----------------|

|--7-7-7--------5-5-5----------|--5-5-5---------|

|--4-4-4--------3-3-3----------|--2-2-2---------|

|------------------------------|----------------|

| | |

|--5-5-5---6-5---3-3-3-6---5---|--3-3-3---4-3---|

|--5-5-5---6-5---5-5-5-5---5---|--3-3-3---4-3---|

|------------------------------|----------------|

|------------------------------|----------------|

|--4-4-4---4-4-3-3-3-3-3-------|--2-2-2---2-2-1-|

|----------------------------3-|----------------|

|-------------------------------|----------------------------------|

|-------------------------------|----------------------------------|

|--3----3----3--3-3-3-3-3-3-3-3-|--3-3-3-3-3-3-3-3-3-3-3-3-3-3-3-3-|

|--3----3----3--3-3-3-3-3-3-3-3-|--3-3-3-3-3-3-3-3-3-3-3-3-3-3-3-3-|

|--1----1----1--1-1-1-1-1-1-1-1-|--1-1-1-1-1-1-1-1-1-1-1-1-1-1-1-1-|

|-------------------------------|----------------------------------|

|

|-------------------------------|----------------------------------|

|--3----4----4----4-----4-------|------------------3-3-3-3-3-3-3-3-|

|--3----3----3----3-----3-------|--3-3-3-3-3-3-3-3-3-3-3-3-3-3-3-3-|

|-------------------------------|--3-3-3-3-3-3-3-3-3-3-3-3-3-3-3-3-|

|--1--1-1--1-1--1-1---1-1-------|--1-1-1-1-1-1-1-1-1-1-1-1-1-1-1-1-|

|-------------------------------|----------------------------------|

Chorus:

Just keep on... come on just keep on...

|--------------------|------------3---3-3---3----|--------------------|

|--2-3---------------|--3-2-------3-3---3-3------|--2-3---------------|

|--2-2---------------|--2-2-------0-0-0-2-2-2----|--2-2---------------|

|--2-4---------------|--4-2-------0-0-0-0-0-0----|--2-4---------------|

|--0-0---------------|--0-0----------------------|--0-0---------------|

|--------------------|------------3-3-3-2-2-2-0--|--------------------|

come on... 2nd verse:

|------------3---3-3---3----|------------------------------|

|--3-2-------3-3---3-3------|------------------------------|

|--2-2-------0-0-0-2-2-2----|----------------5-5-5---------|

|--4-2-------0-0-0-0-0-0----|--7-7-7---------5-5-5---------|

|--0-0----------------------|--4-4-4---------3-3-3---------|

|------------3-3-3-2-2-2-0--|------------------------------|

Tablature by Clemens Fehlow.

Get this song at:  amazon.com

Share your thoughts

0 Comments found