Ac Dc

Ac Dc - Big Balls bass tab

BIG BALLS

Intro

Q=105

4/4

Gtr I

|----------|----------|----------|------|

|----------|----------|----------|------|

|-7--------|-3--------|-7--------|-3----|

|----------|----------|----------|------|

|----------|----------|----------|--------------|

|----------|----------|----------|--------------|

|-7--------|-3--------|-5--------|--------------|

|----------|----------|----------|-7-7-7-7-7----|

Verses

||--------------|-------------|-------------|--------------|

||o-------------|-------------|-------------|--------------|

||o-7--7--7--7--|-3--3--3--3--|-7--7--7--7--|-3--3--3--3---|

||--------------|-------------|-------------|--------------|

|-------------|-------------|-------------|--------------|

|-------------|-------------|-------------|--------------|

|-7--7--7--7--|-3--3--3--3--|-5--5--5--5--|--------------|

|-------------|-------------|-------------|-7-7-7-7-7----|

Chorus

|-------------|-------------|-------------|-------------|

|-------------|-------------|-------------|-------------|

|-7--7--7--7--|-4--4--4--4--|-7--7--7--7--|-4--4--4--4--|

|-------------|-------------|-------------|-------------|

3x

|-------------|-------------|-----------|-------------||

|-------------|-------------|-----------|------------o||

|-7--7--7--7--|-4--4--4--4--|-3----5----|------------o||

|-------------|-------------|-----------|-5--5--7-----||

Out-Chorus

|-------------|-------------|-------------|-------------|

|-------------|-------------|-------------|-------------|

|-7--7--7--7--|-4--4--4--4--|-7--7--7--7--|-4--4--4--4--|

|-------------|-------------|-------------|-------------|

|-------------|-------------|-----------|------------|

|-------------|-------------|-----------|------------|

|-7--7--7--7--|-4--4--4--4--|-3----5----|------------|

|-------------|-------------|-----------|-5--5--7----|

|-------------|-------------|-------------|-------------|------*|

|-------------|-------------|-------------|-------------|------*|

|-7--7--7--7--|-4--4--4--4--|-7--7--7--7--|-4--4--4--4--|-7----*|

|-------------|-------------|-------------|-------------|------*|

Get this song at:  amazon.com

Share your thoughts

0 Comments found