Ac Dc

Ac Dc - Bedlam In Belgium bass tab

AC/DC - Bedlam in Belgium

Tabbed By: cliffwilliamskicksass

Email: blackheart56677@hotmail.com

Tuning: Standard (E A D G)

This sounds good when I play it.

Verse

G|---------------------------------------0-------------------------||

D|-------------------------------------0---------------------------||

A|--0-0-0-0-0-and so on---3-let ring-2-----5-----------------------||

E|-----------------------------------------------------------------||

G|--------------------------------------------0--------------------||

D|------------------------------------------0----------------------||

A|--0-0-0-0-0-0-and so on-3-3-3-3-3-3-3-3-2-----5--0-0-0-and so on-||

E|-----------------------------------------------------------------||

Chorus

G|----------------------------------------------------------------||

D|----------------------------------------------------------------||

A|------5-3--0-0-0-0-0-and so on-x2-------------------------------||

E|--5-3-----------------------------------------------------------||

Verse

G|--------------------------------------------0--------------------||

D|------------------------------------------0----------------------||

A|--0-0-0-0-0-and so on---3-3-3-3-3-3-3-3-2-----5------------------||

E|-----------------------------------------------------------------||

G|--------------------------------------------0--------------------||

D|------------------------------------------0----------------------||

A|--0-0-0-0-0-0-and so on-3-3-3-3-3-3-3-3-2-----5--0-0-0-and so on-||

E|-----------------------------------------------------------------||

Chorus

G|----------------------------------------------------------------||

D|----------------------------------------------------------------||

A|------5-3--0-0-0-0-0-and so on-x2-------------------------------||

E|--5-3-----------------------------------------------------------||

G|----------------------------------------------------------------||

D|----------------------------------------------------------------||

A|------5-3------5-3-----5-3--0-0-0-0-0-0-and so on---------------||

E|--5-3------5-3------5-3-----------------------------------------||

Solo

G|----------------------0------------------------------------------||

D|--------------------0--------------------------------------------||

A|--3-3-3-3-3-3-3-3-2-----5--0-0-0-0-0-0-and so on-x3--------------||

E|-----------------------------------------------------------------||

Chorus

G|----------------------------------------------------------------||

D|----------------------------------------------------------------||

A|------5-3------5-3-----5-3--------------------------------------||

E|--5-3------5-3------5-3-----------------------------------------||

Tiny Verse

G|----------------------------------------------------------------||

D|----------------------------------------------------------------||

A|--0-0-0-0-0-0-0-0-and so on-------------------------------------||

E|----------------------------------------------------------------||

Chorus

G|----------------------------------------------------------------||

D|----------------------------------------------------------------||

A|------5-3--0-0-0-0-0-and so on-x4-------------------------------||

E|--5-3-----------------------------------------------------------||

Chorus

G|----------------------------------------------------------------||

D|----------------------------------------------------------------||

A|------5-3-----5-3-----5-3-slow down the third one---------------||

E|--5-3-----5-3-----5-3-------------------------------------------||

End on the A.

That shall be all.

AC/DC Rocks

Get this song at:  amazon.com

Share your thoughts

0 Comments found