Ac Dc

Ac Dc - Beating Around The Bush guitar tab

Ok, ignore the previous two versions, sorry. This is actually pretty close.

I searched for this on the net and couldn’t find it. I liked it so much I decided to try and figure it out myself and I think I came pretty darn close. This is my first tab effort.

Beating Around The Bush, by AC/DC off of “Highway to Hell”

Intro

|----------------------------------------------------------------------

|----------------------------------------------------------------------

|----------------------------------------------------------------------

|-----------0---------------------------------0------------------------

|-----0-1-2----------------------------0-1-2---------------------------

|-0-3------------------------------0-3---------------------------------

(Rhy. Fig.1 repeats-4x-at-what-I-consider-insanely-fast)

|----------------------------------------------------------------------

|----------------------------------------------------------------------

|----------------------------------------------------------------------

|-----------0----------------2--------------0---------2----2---2-------

|-----0-1-2---2-1-0-------------------0-1-2---2-1-0--------2-2-2-------

|-0-3--------------3-0-3-0-0------0-3---------------3------0-3-0-------

(Rhy. Fig. 2 verses_______________________)

|----------------------------------------------------------------------

|--------------3-------------------------------------------------------

|--------------2--2-2--------------------------------------------------

|--------------0--2-2-----------2---2---2------------------------------

|-----------------0-0-----------2---2-2-2------------------------------

|---------------------3p0-3p0-0-----0-3-0------------------------------

(Rhy. Fig. 3_chorus?_______)

|----------------------------------------------------------------------

|---3---------------------------------3-3-3----------------------------

|---2--2-2----------------------------2-2-2----2-2-2-------------------

|---0--2-2-----------2---2---2-2-2----0-0-0----2-2-2---2---------------

|------0-0-----------2---2-2-2-2-2-------------0-0-0---2---------------

|----------3p0-3p0-0-----0-3-0-0-0---------------------0---------------

The following plays behind the solo (sometimes Malcom plays a high “E” chord instead of the low).

(repeats a few x) then (repeats a few times) then (ends on a “D”)

|----------------------------------------------------------------------

|--------------3-3------------------------------------3-3-3-3-3-3-3----

|--2-2-2-2-2-2-2-2-------4-4-4-4-4-4------------------2-2-2-2-2-2-2----

|--2-2-2-2-2-2-0-0-------4-4-4-4-4-4-2-2--------------0-0-0-0-0-0-0----

|--0-0-0-0-0-0-----------2-2-2-2-2-2-2-2-------------------------------

|------------------------------------0-0-------------------------------

Get this song at:  amazon.com

Share your thoughts

0 Comments found