Ac Dc

Ac Dc - Beating Around Te Bush guitar tab

Intro:

E|-------------------|-----------------------|-------------------|-----------------------|

B|-------------------|-----------------------|-------------------|-----------------------|

G|-------------------|-----------------------|-------------------|-----------------------|

D|-------------------|--------------0--------|-------------------|--------------0--------|

A|-------------------|-----0--1h-2-----------|-------------------|-----0--1h-2-----------|

E|----------------0--|--3--------------------|----------------0--|--3--------------------|

               theme:

|-------------------|--------------------------|-------------------------|

|-------------------|--------------------------|-------------------------|

|-------------------|--------------------------|-------------------------|

|-------------------|--------------0-----------|-----------------2-------|

|-------------------|-----0--1h-2-----2p-1--0--|-----------------2-------|

|----------------0--|--3-----------------------|--3--0--3--0--0--0----0--|

|--------------------------|---------------------|--------------------------|

|--------------------------|---------------------|--------------------------|

|--------------------------|---------------------|--------------------------|

|--------------0-----------|---------------------|--------------0-----------|

|-----0--1h-2-----2p-1--0--|-----2---------------|-----0--1h-2-----2p-1--0--|

|--3-----------------------|--3b-0------------0--|--3-----------------------|

Get this song at:  amazon.com sheetmusicplus.com

Share your thoughts

0 Comments found