Ac Dc

Ac Dc - Ballbreaker guitar tab

From: shawn m

Artist: ac/dc

Album: ballbreaker

Song: ballbreaker

AC/DC

BALLBREAKER (1995)

STANDARD TUNING

INTRO (volume knob turned down half way)

e---------------------------

b----3--2---2-0--2-0--------

g----4--2---2-0--2-0--------

d----------------------2----

a----------------------2----

E----------------------0---- (2x)

MAIN

e--------3-------------3-------------3----

b--------0-------------0-------------0----

g--------0-------------0-------------0----

d----2-2-0---2-----2-2-0---2-----2-2-0---2

a----2-2-2---2-----2-2-2---2-----2-2-2---2

E----0-0-3---0-----0-0-3---0-----0-0-3---0 (ect)

CHOURS

e---3-3-3-3-2--2--------

b---0-0-0-0-3--3--------

g---0-0-0-0-2--2--2-----

d---0-0-0-0-0--0--2--2-2

a---2-2-2-2-------0--2-2

E---3-3-3-3----------0-0

THE END

Get this song at:  amazon.com

Share your thoughts

0 Comments found