Ac Dc

Ac Dc - Ball Breaker bass tab

intro

g---------------------

d---------------------

a--2-0-0----0------- x2

e----------3----3-0--

*on second time, let the E ring

verses/chorus/solo

g----------------------

d----------------------

a----------------------

e--0-0-0-0-0-0-0-0

pre-chorus

g------------------------------

d------------------------------

a------------------------------ x4

e--3-3-3-3-5-3-3-5-5-3-0

all in all, this song is very easy. it's

not fast at all, and it really is a great

song in general.

Get this song at:  amazon.com sheetmusicplus.com

Share your thoughts

0 Comments found