Ac Dc

Ac Dc - Bad Boy Boogie guitar tab

BAD BOY BOOGIE - AC/DC

by Stephan Mueller (s.mueller@hit.handshake.de)

First:Tune down a half-step (Eb)

Pattern 1

A5 A4 C5/A A5 A4 C5/A A5

Eb----------------------------------------------------------------------------|

Bb-------------------3---------------3----------------------------------------|

Gb---2--2--2--2---2--2----5--2----2--2----5--2--2--2--2--2--2--2--2--2--------|

Db---2--2--2--2---2--2----5--2----2--2----5--2--2--2--2--2--2--2--2--2--------|

Ab---0--0--0--0---0-------0--0----0-------0--0--0--0--0--0--0--0--0--0--------|

Eb----------------------------------------------------------------------------|

Verse : |Repeat this 2 times

A5 A5 A4 C5/A A5 A4 C5/A

Eb--------|-------------------------------------------------------------------|

Bb--------|-------------------------------------------3--------------3--------|

Gb-2----2-|*-2---2--2---2--2---2---2--2---2--2--------2----5--2---2--2---5--2*|

Db-2----2-|*-2---2--2---2--2---2---2--2---2--2--------2----5--2---2--2---5--2*|

Ab-0----0-|--0---0--0---0--0---0---0--0---0--0--0--0-------0--0---0------0--0-|

Eb--------|-------------------------------------------------------------------|

A4 C5/A A5 D5 G5 F5 D5

Eb----------------------------------------------------------------------------|

Bb----3-----------------------------------------------------------------------|

Gb----2---5--2----7----7----7--7----7--7----7----7--7----7--7--/---12---10---7|

Db----2---5--2----7----7----7--7----7--7----7----7--7----7--7--/---12---10---7|

Ab-0------0--0----5----5----5--5----5--5----5----5--5----5--5--/---10----8---5|

Eb----------------------------------------------------------------------------|

pm G5 F5 D5 E5 E A5

Eb----------------------------------------------------------------------------|

Bb----------------------------------------------------------------------------|

Gb----12---10---7--------------1----1--1----1--1----1----1--1----1--1-----2---|

Db----12---10---7---------2----2----2--2----2--2----2----2--2----2--2-----2---|

Ab-5--10----8---5---------2----2----2--2----2--2----2----2--2----2--2-----0---|

Eb------------------------0----0----0--0----0--0----0----0--0----0--0--0------|

E5 A5 E5 C5 Chorus Gtr.2 play along with pattern 2!

Eb-----------------------------| Eb-------------------------------------------|

Bb-----------------------------| Bb-------------------------------------------|

Gb------------2-------------5--| Gb-5--------------------------5--------------|

Db-----2------2--------2----5--| Db----7---5--7---7--5--7---7-----------------|

Ab-----2------0--------2----3--| Ab-------------------------------------------|

Eb--3--0---0-------3---0-------| Eb-------------------------------------------|

|-------|

Gtr1 Gtr2

Pattern 2 (played twice)

A5 C5

Eb---------------------------------------------| Eb---------------|

Bb---------------------------------------------| Bb---------------|

Gb*--2--------2---2----2--------2---2-----5---*| Gb--2-------2----|

Db*--2--------2---2----2--------2---2-----5---*| x2 Db--2-------2----|

Ab---0--------0---0----0--------0---0-----3----| Ab--0-------0----|

Eb--------3-----------------3------------------| Eb------3--------|

both guitars!

Eb------------------------------------|

Bb------------------------------------|

Gb------------------------------------|

Db-7----6--5--------------------------|

Ab-------------7---3---5---3---5------|

Eb------------------------------------|

y

Get this song at:  amazon.com sheetmusicplus.com

Share your thoughts

0 Comments found