Ac Dc

Ac Dc - Bad Boy Boogie bass tab

AC/DC - Bad Boy Boogie

Tabbed By: MalcolmYoungRocks

Email: anguswalk789@yahoo

Tuning: Standard (E A D G)

This is probably wrong, but I'll give it a try.

Intro

G|----------------------------------------------------------------||

D|----------------------------------------------------------------||

A|-----0000x4-----------------------------------------------------||

E|----------------------------------------------------------------||

Verse

G|----------------------------------------------------------------||

D|----------------------------------------------------------------||

A|-----0000---5---3-------5555---10---8---5x4---------10---8------||

E|--------------------5x4----------------------0000------------5x4||

Chorus

G|----------------------------------------------------------------||

D|----------------------------------------------------------------||

A|-----5-----------------------------756-----------------------------||

E|---------7---5---7---7---5---77---------5---3--5-3--53----------------||

During Solo

G|----------------------------------------------------------------||

D|----------------------------------------------------------------||

A|-----000000000etc.-----555555555etc.----------------------------||

E|---------------------------------------0000000------------------||

G|----------------------------------------------------------------||

D|----------------------------------------------------------------||

A|-----3-------3-------3---3---3----------------------------------||

E|---------5-------5---------------5------------------------------||

Then it starts to build up

G|----------------------------------------------------------------||

D|----------------------------------------------------------------||

A|----------------------------------------------------------------||

E|-----0000000etc.---333333etc.---5555555etc.---77777777etc.---9etc.||

Then Repeat the Verse and Chorus

Get this song at:  amazon.com sheetmusicplus.com

Share your thoughts

0 Comments found