Ac Dc

Ac Dc - Bacx In Blacx guitar tab

e|------------------------|------------3-0-------------|

B|---------3-3-3----------|----------------3-0---------|

G|---------2-2-2------2-2-|--2-----------------2b4r2-0-|

D|--2------0-0-0------2-2-|--2-------------------------|

A|--2-----------------0-0-|--0-------------------------|

E|--0---------------------|----------------------------|

|------------------------|---------------------------|

|---------3-3-3----------|---------------------------|

|---------2-2-2------2-2-|--2------------------------|

|--2------0-0-0------2-2-|--2------------------------|

|--2-----------------0-0-|--0------------------------|

|--0---------------------|-------7-4--7-5--7-6--7-7\-|

|-----------------------|-----------------------|----3---2--------------|----3---2--------------|

|-----------------------|-----------------------|----3---3--------------|----3---3--------------|

|----2-------4---2---4--|----2-------4---2---4--|----0---2---2---0---2--|----0---2---2---0---2--|

|----2---2---4---2---4--|----2---2---4---2---4--|----0---0---2---0---2--|----0---0---2---0---2--|

|----0---2---2---0---2--|----0---2---2---0---2--|----2-------0---2---0--|----2-------0---2---0--|

|--------0--------------|--------0--------------|----3-----------3------|----3-----------3------|

|-----------------------|-----------------------|--3---3---3---3-3--3----|--2---2---2----------|

|-----------------------|-----------------------|--3---3---3---3-3--3----|--3---3---3----------|

|----2-------4---2---4--|----2-------4---2---4--|--4---4---4---4-4--4----|--2---2---2----------|

|----2---2---4---2---4--|----2---2---4---2---4--|--5---5---5---5-5--5----|--0---0---0----------|

|----0---2---2---0---2--|----0---2---2---0---2--|--5---5---5---5-5--5----|---------------------|

|--------0--------------|--------0--------------|--3---3---3---3-3--3----|---------------------|

|------------------------------|------------------------------|------------------------------|

|------------------------------|------------------------------|------------------------------|

|------------------------------|------------------------------|------------------------------|

|------------------------------|------------------------------|----5-4-2-4----2----2----2----|

|----5-4-2-4----2----2----2----|----5-4-2-4----2----2----2----|--0---------3----5----6----7--|

|--0---------3----5----6----7--|--0---------3----5----6----7--|------------------------------|

|------------------------------|------------------------------|------------------------------|

|------------------------------|------------------------------|------------------------------|

|------------------------------|------------------------------|------------------------------|

|----5-4-2-4----2----2----2----|------------------------------|------------------------------|

|--0---------3----5----6----7--|----5-4-2-4----2----2----2----|----5-4-2-4----2----2----2----|

|------------------------------|--0---------3----5----6----7--|--0---------3----5----6----7--|

Get this song at:  amazon.com sheetmusicplus.com

Share your thoughts

0 Comments found