Ac Dc

Ac Dc - Back In Black Solo2 guitar tab

AC/DC - BACK IN BLACK

ASSOLO - SOLO  (by dodo, dodomaru@libero.it)

e|-------------------------------------

b|-------------------------------------

g|-------------------------------------

d|-------------------------------------

a|--7~--5~--4~--2~-----7~--5~--4~--2~--

E|-------------------------------------

e|--------------------------------------

b|-----------------------8--5-----------

g|--7--7--7--7(9)--7(9)--------7--7(9)--

d|--------------------------------------

a|--------------------------------------

E|--------------------------------------

e|-----------5-----5--------------------

b|--------8-----8-----8--5-----5~-------

g|--7(9)--------------------7-----------

d|--------------------------------------

a|--------------------------------------

E|--------------------------------------

e|-------------------10----------10----------------------

b|--8-----8--10(12)------10(12)------10(12)^10--8^10^8~--

g|-----9-------------------------------------------------

d|-------------------------------------------------------

a|-------------------------------------------------------

E|-------------------------------------------------------

e|-----------------

b|--8--------8-----

g|-----9--9-----9--

d|-----------------

a|-----------------

E|-----------------

e|--------------10---------10----------------------

b|--8--10(12)------10(12)------10(12)^10--8^10^8~--

g|-------------------------------------------------

d|-------------------------------------------------

a|-------------------------------------------------

E|-------------------------------------------------

e|------12--12----------12--12--12--------------------------

b|--12----------15(17)--------------15(17)^15-12------------

g|-----------------------------------------------14(16)^14--

d|----------------------------------------------------------

a|----------------------------------------------------------

E|----------------------------------------------------------

    

e|----------------------------------------------------

b|-------------15-------------------------------------

g|--12--14(16)------14(16)^14--12--14--12~------12~~--

d|------------------------------------------14--------

a|----------------------------------------------------

E|----------------------------------------------------

      

    

e|----------------------------------------------------------------------

b|----------------------------------------------15----------------------

g|----------12------14------12------12--14(16)------14(16)^14--12-------

d|--14--14------14------14------14---------------------------------14~--

a|----------------------------------------------------------------------

E|----------------------------------------------------------------------

  

    

e|--------------------------------------

b|--------------15----------------------

g|--12--14(16)------14(16)^14--12-------

d|---------------------------------14~--

a|--------------------------------------

E|--------------------------------------

    

e|-----------------------------

b|--15(17)--15^12--------------

g|-----------------14^12-------

d|------------------------14~--

a|-----------------------------

E|-----------------------------

    

e|--------------------------------------------------12--12----------

b|----------------------------------------------12----------15(17)--

g|---0--------------0--------------0--------------------------------

d|--14^12--12^14~--12^11--11^12~--11^9--9^11~-----------------------

a|------------------------------------------------------------------

E|------------------------------------------------------------------

e|--------------------------------------------------------------------------

b|----------------------------------------------15(17)^15-------------------

g|---0--------------0--------------0-----------------------14(16)^14--12~~--

d|--14^12--12^14~--12^11--11^12~--11^9--9^11~-------------------------------

a|--------------------------------------------------------------------------

E|--------------------------------------------------------------------------

Get this song at:  amazon.com

Share your thoughts

0 Comments found