Ac Dc

Ac Dc - Back In Black (perfect) bass tab

Artist: Ac Dc

Title: Back In Black

Tabbed By:Alex Davis

This is a great song. Really easy to play.

Verse

G]---------------------------------------------------------------------------------------

D]---------------------------------------------------------------------------------------

A]-----555-------------555-----------------------------------------

E]-0----------555- 0------555----7-4-7-5-7-6-7-6-----------------

hook

G]---------------------------------------------------------------------------------------

D]-------------------------------------5--------------5------------------------------

A]---------------------------------------5---------------5-------------------------------

E]----5--0--7--5-7--5--0--7--5-7-----------5--3--5---------5--3--5-----------------------

bridge

G]---------------------------------------------------------------------------------------

D]---------------------------------------------------------------------------------------

A]--3-----7--9--15-----------------------------------------------------------------------

E]---------------------------------------------------------------------------------------

Get this song at:  amazon.com sheetmusicplus.com

Share your thoughts

0 Comments found