Ac Dc

Ac Dc - Back In Black Intro2 guitar tab

done by: andyt.

I hate wrong tabs, like the ones of this song on this website.

I'm feeling quite generous, so I decided to make an easier way

to play this song. No, the intro to this song is not made with the d

chords,

it's all power chords.this is standard tuning.

----------------------------3-0------------------------------

--------------------------------3-0--------------------------

--------7-7-7-------------------------2^3R2p0----------------

--2-----7-7-7----7-7-7---------------------------------------

--2-----5-5-5----7-7-7---------------------------------------

--0--------------5-5-5---------------------------------------

-------------------------------------------------------------

-------------------------------------------------------------

--------7-7-7------------------------------------------------

--2-----7-7-7----7-7-7---------------------------------------

--2-----5-5-5----7-7-7---------------------------------------

--0--------------5-5-5---7-4-7-5-7-6-7-7\--------------------

-------------------------------------------------------------

-------------------------------------------------------------

-------------------------------------------------------------

----0--------------------------------------------------------

-0-----------------------------------------------------------

-------9-7-9-4-7-5-7-6-7-7\----------------------------------

the chorus goes:

-------------------------------------------------------------

-------------------------------------------------------------

-2-----4--2--4-----------------------------------------------

-2--2--4--2--4-----------------------------------------------

-0--2--2--0--2-----------------------------------------------

----0--------------------------------------------------------

?s email andy_87us@yahoo.com

Get this song at:  amazon.com

Share your thoughts

0 Comments found