Ac Dc

Ac Dc - Back In Black Bass Tab bass tab

Artist: AC/DC

Title: Back in Black Bass Tab

Album : Back in Black

Intro

G|----------------|----------------|

D|----------------|----------------|

A|----------------|----------------|

E|----------------|----------------|

G| ----------------|----------------|

D|*----------------|----------------|

A|*-----555------44|-4--------------|

E| -0--------------|----------------|

G|----------------|---------------- |

D|----------------|----------------*|

A|-----555------44|-4--------------*|

E|-0--------------|----74-75-76-77 |

Verse 1 Play intro

Chorus

G| ---------------- || ---------------- |

D|*----------------*||*--5-------------*|

A|*----------------*||*-----5----------*|

E| --5--0-7--5-7--- || -------5--3-5--- |

G| ---------------- |

D|*----------------*|

A|*----------------*|

E| --5--0-7--5-7--- |

G|----------------|----------------|

D|-5--------------|----------------|

A|----------------|-5--/12--/17----|

E|----------------|----------------|

Guitar solo

G| ----------------|----------------|

D|*----------------|----------------|

A|*-----555------44|-4--------------|

E| -0--------------|------000-000-00|

x4

G|----------------|---------------- |

D|----------------|----------------*|

A|-----555------44|-4--------------*|

E|-0--------------|-----0-5--0--5-- |

Chorus

G| ---------------- || ---------------- |

D|*----------------*||*--5-------------*|

A|*----------------*||*-----5----------*|

E| --5--0-7--5-7--- || -------5--3-5--- |

G| ---------------- |

D|*----------------*|

A|*----------------*|

E| --5--0-7--5-7--- |

G|----------------|----------------|

D|-5--------------|----------------|

A|----------------|-5--/12--/17----|

E|----------------|----------------|

Bridge

G|----------------|----------------|

D|----------------|----------------|

A|-5--------------|-5--------------|

E|----------------|----74-75-76-77|

G| ----------------- |

D|*-----------------*|

A|*-55--------------*|

E| ---5-74-75-76-77 |

G| ----------------- || ----------------- |

D|*-55--------------*||*-----------------*|

A|*---5-74-75-76-77*||*-55--------------*|

E| ----------------- || ---5-74-75-76-77 |

Chorus

G| ---------------- || ---------------- |

D|*----------------*||*--5-------------*|

A|*----------------*||*-----5----------*|

E| --5--0-7--5-7--- || -------5--3-5--- |

G| ---------------- |

D|*----------------*|

A|*----------------*|

E| --5--0-7--5-7--- |

G|----------------|----------------|

D|-5--------------|----------------|

A|----------------|-5--/12--/17----|

E|----------------|----------------|

G|----------------|----------------|

D|----------------|----------------|

A|----------------|----------------|

E|----------------|----------------|

End

G| ----------------|----------------|

D|*----------------|----------------|

A|*-----555------44|-4--------------|

E| -0--------------|------000-000-00|

repeat and fade

G|----------------|---------------- |

D|----------------|----------------*|

A|-----555------44|-4--------------*|

E|-0--------------|-----0-5--0--5-- |

Get this song at:  amazon.com

Share your thoughts

0 Comments found