Ac Dc

Ac Dc - Baby Please Dont Go guitar tab

Intro

-------------------|

-------------------|

-------------------|

-------------------|

-------------------|

--0-0-0-0-0-0-0-0--|

Angus

---------------------|

--10/12--15----------|

------------15-12-9--|

---------------------|x4

---------------------|

---------------------|

Malcolm

---------------------|

---------------------|

---------------------|

---------------------|x4

-----5-2-------------|

--/7-----3-0---------|

Angus

Riff A1

-------------15------------------15---------------|

--17b--12-15----15-12------12-15----15-12-17b-12--|

----------------------15b-------------------------|

--------------------------------------------------|

--------------------------------------------------|

--------------------------------------------------|

--------------------------------------------------|

------15--------------15--------------------------|

--/14----14-12----/14----14-12--------------------|

---------------14--------------14-----------------|

----------------------------------14-12-----------|

----------------------------------------14-12-----|

Malcolm

Riff A2

----------3------------3--------------------------|

--5b--0-3---3-0----0-3---3-0-3b-0---3----------3--|

----------------3b----------------/2--3-1---/2----|

------------------------------------------3-------|

--------------------------------------------------|

--------------------------------------------------|

-----------------|

-----------------|

--3-1------------|

------3----------|

--------2-0------|

------------3-0--|

Verse

Angus

-----------------------|

-----------------------|

-----------------------|

-----------------------|

-----------------------|

--14\\-0-14\\-0-0-14\\-0--|

Malcolm

--------------------|

--------------------|

--------------------|

--------------------|

--------------------|

--3/-0-3/-0-0-3/-0--|

Both Let Ring

---------------5--|

---------------3--|

--2------------0--|

--2---------------|

--0---2-0---------|

----------3-0-----|

----------------------------------------|

----------------------------------------|

----------------------------------------|

--2--2-3--3-4--4-5--5-6--6-7--7-8--8-9--|

--2--2-3--3-4--4-5--5-6--6-7--7-8--8-9--|

--0--0-1--1-2--2-3--3-4--4-5--5-6--6-7--|

-----------------------|

-----------------------|

-----------------------|

--6-7-8-9-10-11-12-13--|

--6-7-8-9-10-11-12-13--|

--4-5-6-7-8--9--10-11--|

Riff A1 and A2

Drums and bass for a couple of seconds

Malcolm

Play Through Solo

---------------|

---------------|

--7-7-7-7-7h9--|

---------------|

--8-8-8-8-8----|

---------------|

Angus Solo

(Don't Use Picking Hand)

Pull-Off

--7-4-0-7-4-0-7-4-0-7-4-0-7-4-0-7-4-0-7-4-0-7-4-0--|

---------------------------------------------------|

---------------------------------------------------|

---------------------------------------------------|

---------------------------------------------------|

---------------------------------------------------|

---------------------------------------------------|

--8-4-0-8-4-0-8-4-0-8-4-0-8-4-0-8-4-0-8-4-0-8-4-0--|

---------------------------------------------------|

---------------------------------------------------|

---------------------------------------------------|

---------------------------------------------------|

---------------------------------------------------|

---------------------------------------------------|

--8-4-0-8-4-0-8-4-0-8-4-0--------------------------|

--------------------------8-4-0-8-4-0-8-4-0-8-4-0--|

---------------------------------------------------|

---------------------------------------------------|

-----------------------------------------------------|

-----------------------------------------------------|

-----------------------------------------------------|

-----------------------------------------------------|

--8-4-0-8-4-0-8-4-0-8-4-0----------------------------|

--------------------------8-4-0-8-4-0-8-4-0-8-4-0-0--|

------------------------------------------------------|

--12b-12b-12b\\-----------10b-10-8p5-------------------|

---------------9-9-12-9\\---------------------12-14-14-|

-----------------------------------12b-17p14----------|

------------------------------------------------------|

------------------------------------------------------|

-----------------------------------------------------|

--12-10-12-12\\-5-5-5-12-12-12-5\\-5-------------------|

-----------------------------------------------------|

-----------------------------------------------------|

-----------------------------------------------------|

-----------------------------------------------------|

Play The Pull-Off Part Of The Solo AgainAdded by tabs-database.com and our distinguished partners

Get this song at:  amazon.com

Share your thoughts

0 Comments found