Ac Dc

Ac Dc - Aint No Fun Waiting Round To Be A Millionairre guitar tab

Ain't no fun (waiting 'round to be a millionaire)

AC/DC

Tabbed by masulprizio

Tuning- Standard

Bend- b

Hammeron- h

Pulloff- p

Palm mute- P.M.

Intro (guitar 1)

E---------------|-------------------------------------|

B-3----------3--|-------------------------------------|

G-2----------2--|-----0-----0-----0---0--0----0----0--|

D-0---3--4---0--|---0---------------------------------| x2

A---------------|--------0-----2----3------2----------|

E---------------|-3------------------------------3----|

Intro (guitar 2)

E---------------|-------------------------------------|

B-3----------3--|-------------------------------------|

G-2----------2--|-------------------------------------|

D-0---3--4---0--|-5-----------------------------------| x2

A---------------|-5------0-----2----3------2----------|

E---------------|-3------------------------------3----|

(guitar 1)

E------------------|---------------|---------------|---------------|

B------------------|---------------|---------------|---------------|

G-2--2--4--2--4--2-|-2--4--2--4--2-|-2--4--2--4--2-|-2--4--2--4--2-|

D-0--0--0--0--0--0-|-0--0--0--0--0-|-0--0--0--0--0-|-0--0--0--0--0-|

A------------------|---------------|---------------|---------------|

E------------------|---------------|---------------|---------------|

(guitar 2)

E------------------|---------------|---------------|---------------|

B-3~~~~~~~~~~~~~~~~|~~~~~~~~~~~~~~~|-3~~~~~~~~~~~~~|~~~~~~~~~~~~~~~|

G-2~~~~~~~~~~~~~~~~|~~~~~~~~~~~~~~~|-2~~~~~~~~~~~~~|~~~~~~~~~~~~~~~|

D-0~~~~~~~~~~~~~~~~|~~~~~~~~~~~~~~~|-0~~~~~~~~~~~~~|~~~~~~~~~~~~~~~|

A------------------|---------------|---------------|---------------|

E------------------|---------------|---------------|---------------|

Verse (guitar 1)

E---------------|---------------|

B---------------|---------------|

G-2--4--2--4--2-|-2--4--2--4--2-|

D-0--0--0--0--0-|-0--0--0--0--0-| x29 1/2

A---------------|---------------|

E---------------|---------------|

Verse (guitar 2)

P.M. P.M.

E---------------|---------------|

B----3-------3--|----3-------3--|

G-2--2-------2--|-2--2-------2--|

D-0----0--0-----|-0----0--0-----| x29 1/2

A---------------|---------------|

E---------------|---------------|

Chorus (guitar 1)

E-3~~~~~~~~~~~~~~|-------------------------------------|

B-3~~~~~~~~~~~~~~|-------------------------------------|

G-0~~~~~~~~~~~~~~|-----0-----0-----0---0--0----0----0--|

D-0~~~~~~~~~~~~~~|---0---------------------------------|

A-2~~~~~~~~~~~~~~|--------0-----2----3------2----------|

E-3~~~~~~~~~~~~~~|-3------------------------------3----|

E------------------|---------------|---------------|---------------|

B------------------|---------------|---------------|---------------|

G-2--2--4--2--4--2-|-2--4--2--4--2-|-2--4--2--4--2-|-2--4--2--4--2-|

D-0--0--0--0--0--0-|-0--0--0--0--0-|-0--0--0--0--0-|-0--0--0--0--0-|

A------------------|---------------|---------------|---------------|

E------------------|---------------|---------------|---------------|

Chorus (guitar 2)

E-3~~~~~~~~~~~~~~|-------------------------------------|

B-3~~~~~~~~~~~~~~|-------------------------------------|

G-0~~~~~~~~~~~~~~|-------------------------------------|

D-0~~~~~~~~~~~~~~|-5-----------------------------------|

A-2~~~~~~~~~~~~~~|-5------0-----2----3------2----------|

E-3~~~~~~~~~~~~~~|-3------------------------------3----|

P.M. P.M. P.M. P.M.

E---------------|---------------|--------------|--------------|

B----3-------3--|----3-------3--|----3------3--|----3------3--|

G-2--2-------2--|-2--2-------2--|-2--2------2--|-2--2------2--|

D-0----0--0-----|-0----0--0-----|-0----0--0----|-0----0--0----|

A---------------|---------------|--------------|--------------|

E---------------|---------------|--------------|--------------|

Chorus (guitar 1)

E-3~~~~~~~~~~~~~~|-------------------------------------|

B-3~~~~~~~~~~~~~~|-------------------------------------|

G-0~~~~~~~~~~~~~~|-----0-----0-----0---0--0----0----0--|

D-0~~~~~~~~~~~~~~|---0---------------------------------|

A-2~~~~~~~~~~~~~~|--------0-----2----3------2----------|

E-3~~~~~~~~~~~~~~|-3------------------------------3----|

E------------------|---------------|---------------|---------------|

B------------------|---------------|---------------|---------------|

G-2--2--4--2--4--2-|-2--4--2--4--2-|-2--4--2--4--2-|-2--4--2--4--2-|

D-0--0--0--0--0--0-|-0--0--0--0--0-|-0--0--0--0--0-|-0--0--0--0--0-|

A------------------|---------------|---------------|---------------|

E------------------|---------------|---------------|---------------|

Chorus (guitar 2)

E-3~~~~~~~~~~~~~~|-------------------------------------|

B-3~~~~~~~~~~~~~~|-------------------------------------|

G-0~~~~~~~~~~~~~~|-------------------------------------|

D-0~~~~~~~~~~~~~~|-5-----------------------------------|

A-2~~~~~~~~~~~~~~|-5------0-----2----3------2----------|

E-3~~~~~~~~~~~~~~|-3------------------------------3----|

P.M. P.M. P.M. P.M.

E---------------|---------------|--------------|--------------|

B----3-------3--|----3-------3--|----3------3--|----3------3--|

G-2--2-------2--|-2--2-------2--|-2--2------2--|-2--2------2--|

D-0----0--0-----|-0----0--0-----|-0----0--0----|-0----0--0----|

A---------------|---------------|--------------|--------------|

E---------------|---------------|--------------|--------------|

Chorus (guitar 1)

E-3~~~~~~3~~~~~~~~|-------------------------------------|

B-3~~~~~~3~~~~~~~~|-------------------------------------|

G-0~~~~~~0~~~~~~~~|-----0-----0-----0---0--0----0----0--|

D-0~~~~~~0~~~~~~~~|---0---------------------------------|

A-2~~~~~~2~~~~~~~~|--------0-----2----3------2----------|

E-3~~~~~~3~~~~~~~~|-3------------------------------3----|

E------------------|---------------|---------------|---------------|

B------------------|---------------|---------------|---------------|

G-2--2--4--2--4--2-|-2--4--2--4--2-|-2--4--2--4--2-|-2--4--2--4--2-|

D-0--0--0--0--0--0-|-0--0--0--0--0-|-0--0--0--0--0-|-0--0--0--0--0-|

A------------------|---------------|---------------|---------------|

E------------------|---------------|---------------|---------------|

Chorus (guitar 2)

E-3~~~~~~3~~~~~~~~|-------------------------------------|

B-3~~~~~~3~~~~~~~~|-------------------------------------|

G-0~~~~~~0~~~~~~~~|-------------------------------------|

D-0~~~~~~0~~~~~~~~|-5-----------------------------------|

A-2~~~~~~2~~~~~~~~|-5------0-----2----3------2----------|

E-3~~~~~~3~~~~~~~~|-3------------------------------3----|

P.M. P.M. P.M. P.M.

E---------------|---------------|--------------|--------------|

B----3-------3--|----3-------3--|----3------3--|----3------3--|

G-2--2-------2--|-2--2-------2--|-2--2------2--|-2--2------2--|

D-0----0--0-----|-0----0--0-----|-0----0--0----|-0----0--0----|

A---------------|---------------|--------------|--------------|

E---------------|---------------|--------------|--------------|

Chorus (guitar 1)

E-3~~~~~~3~~~~~~~~|-------------------------------------|

B-3~~~~~~3~~~~~~~~|-------------------------------------|

G-0~~~~~~0~~~~~~~~|-----0-----0-----0---0--0----0----0--|

D-0~~~~~~0~~~~~~~~|---0---------------------------------|

A-2~~~~~~2~~~~~~~~|--------0-----2----3------2----------|

E-3~~~~~~3~~~~~~~~|-3------------------------------3----|

E------------------|---------------|---------------|---------------|

B------------------|---------------|---------------|---------------|

G-2--2--4--2--4--2-|-2--4--2--4--2-|-2--4--2--4--2-|-2--4--2--4--2-|

D-0--0--0--0--0--0-|-0--0--0--0--0-|-0--0--0--0--0-|-0--0--0--0--0-|

A------------------|---------------|---------------|---------------|

E------------------|---------------|---------------|---------------|

Chorus (guitar 2)

E-3~~~~~~3~~~~~~~~|-------------------------------------|

B-3~~~~~~3~~~~~~~~|-------------------------------------|

G-0~~~~~~0~~~~~~~~|-------------------------------------|

D-0~~~~~~0~~~~~~~~|-5-----------------------------------|

A-2~~~~~~2~~~~~~~~|-5------0-----2----3------2----------|

E-3~~~~~~3~~~~~~~~|-3------------------------------3----|

P.M. P.M. P.M. P.M.

E---------------|---------------|--------------|--------------|

B----3-------3--|----3-------3--|----3------3--|----3------3--|

G-2--2-------2--|-2--2-------2--|-2--2------2--|-2--2------2--|

D-0----0--0-----|-0----0--0-----|-0----0--0----|-0----0--0----|

A---------------|---------------|--------------|--------------|

E---------------|---------------|--------------|--------------|

Chorus (guitar 1)

E-3~~~~~~3~~~~~~~~|-------------------------------------|

B-3~~~~~~3~~~~~~~~|-------------------------------------|

G-0~~~~~~0~~~~~~~~|-----0-----0-----0---0--0----0----0--|

D-0~~~~~~0~~~~~~~~|---0---------------------------------|

A-2~~~~~~2~~~~~~~~|--------0-----2----3------2----------|

E-3~~~~~~3~~~~~~~~|-3------------------------------3----|

E------------------|---------------|---------------|---------------|

B------------------|---------------|---------------|---------------|

G-2--2--4--2--4--2-|-2--4--2--4--2-|-2--4--2--4--2-|-2--4--2--4--2-|

D-0--0--0--0--0--0-|-0--0--0--0--0-|-0--0--0--0--0-|-0--0--0--0--0-|

A------------------|---------------|---------------|---------------|

E------------------|---------------|---------------|---------------|

Chorus (guitar 2)

E-3~~~~~~3~~~~~~~~|-------------------------------------|

B-3~~~~~~3~~~~~~~~|-------------------------------------|

G-0~~~~~~0~~~~~~~~|-------------------------------------|

D-0~~~~~~0~~~~~~~~|-5-----------------------------------|

A-2~~~~~~2~~~~~~~~|-5------0-----2----3------2----------|

E-3~~~~~~3~~~~~~~~|-3------------------------------3----|

P.M. P.M. P.M. P.M.

E---------------|---------------|--------------|--------------|

B----3-------3--|----3-------3--|----3------3--|----3------3--|

G-2--2-------2--|-2--2-------2--|-2--2------2--|-2--2------2--|

D-0----0--0-----|-0----0--0-----|-0----0--0----|-0----0--0----|

A---------------|---------------|--------------|--------------|

E---------------|---------------|--------------|--------------|

Chorus (guitar 1)

E-3~~~~~~3~~~~~~~~|-------------------------------------|

B-3~~~~~~3~~~~~~~~|-------------------------------------|

G-0~~~~~~0~~~~~~~~|-----0-----0-----0---0--0----0----0--|

D-0~~~~~~0~~~~~~~~|---0---------------------------------|

A-2~~~~~~2~~~~~~~~|--------0-----2----3------2----------|

E-3~~~~~~3~~~~~~~~|-3------------------------------3----|

E------------------------------------------|

B---------------------------------------2--|

G------0-----0-----0---0--0----0----0---3--|

D----0----------------------------------0--|

A---------0-----2----3------2--------------|

E--3------------------------------3--------|

E-3~~~~~~3~~~~~~~~|-------------------------------------|

B-3~~~~~~3~~~~~~~~|-------------------------------------|

G-0~~~~~~0~~~~~~~~|-------------------------------------|

D-0~~~~~~0~~~~~~~~|-5-----------------------------------|

A-2~~~~~~2~~~~~~~~|-5------0-----2----3------2----------|

E-3~~~~~~3~~~~~~~~|-3------------------------------3----|

E---------------------------------------|

B------------------------------------3--|

G------------------------------------2--|

D--5---------------------------------0--|

A--5------0-----2----3------2-----------|

E--3------------------------------3-----|

Verse/outro (guitar 1)

E------------------|---------------|---------------|---------------|

B------------------|---------------|---------------|---------------|

G-2--2--4--2--4--2-|-2--4--2--4--2-|-2--4--2--4--2-|-2--4--2--4--2-|

D-0--0--0--0--0--0-|-0--0--0--0--0-|-0--0--0--0--0-|-0--0--0--0--0-|

A------------------|---------------|---------------|---------------|

E------------------|---------------|---------------|---------------|

Verse/outro (guitar 2)

E------------------|---------------|---------------|---------------|

B------------------|---------------|-3~~~~~~~~~~~~~|-3~~~~~~~~~~~~~|

G------------------|---------------|-2~~~~~~~~~~~~~|-2~~~~~~~~~~~~~|

D------------------|---------------|-0~~~~~~~~~~~~~|-0~~~~~~~~~~~~~|

A------------------|---------------|---------------|---------------|

E------------------|---------------|---------------|---------------|

(guitar 1)

E---------------|---------------|

B---------------|---------------|

G-2--4--2--4--2-|-2--4--2--4--2-|

D-0--0--0--0--0-|-0--0--0--0--0-| x43

A---------------|---------------|

E---------------|---------------|

(guitar 2)

P.M. P.M.

E---------------|---------------|

B----3-------3--|----3-------3--|

G-2--2-------2--|-2--2-------2--|

D-0----0--0-----|-0----0--0-----| x43

A---------------|---------------|

E---------------|---------------|

FADE OUT

ENJOY!

Added by tabs-database.com and our distinguished partners

Get this song at:  amazon.com sheetmusicplus.com

Share your thoughts

0 Comments found