Ac Dc

You Shook Me All Night Long(intro) Tabs



More from Ac Dc

Ac Dc Tabs
Ac Dc Chords
Ac Dc Bass
Ac Dc Lyrics




1-------------------------------------------------
2-----2-------------------------------------------
3--4----4-4------4-3------3^-------1-2-1----------
4-------------4------4-4------4--4-------4--------
5-------------------------------------------------
6-------------------------------------------------


1-------------------------------------------------
2-----2-------------------------------------------
3--4----4-4------4-3------------------------------
4-------------4-------4-4~------------------------
5-------------------------------------------------
6-------------------------------------------------


1-----------------2~---x----2---2-----------------
2-----*4-4----4-----------------------------------
3--4-------4----4-------4-4---4-----4~------------
4-------------------------------------------------
5-------------------------------------------------
6-------------------------------------------------



Get this song at amazon.com      Ebay     Ringtones Ringtones  


Learn to play: Songwriting, Piano, Harmonica, Guitar

Related Ac Dc Tabs

Shake A Leg tabs
Ride On tabs
School Days tabs
Back In Black3 tabs
Touch To Much tabs
Up To My Neck In You tabs
Razor's Edge, The tabs
Tnt Correct Version tabs
Crabsody In Blue tabs
Thunder Struck tabs
Tnt Live tabs
Hard As A Rock tabs
About To Rock tabs
Are You Ready (100% Correct) tabs
Shoot To Thrill tabs
Fling Thing tabs
Sink The Pink tabs
Baby Please Dont Go2 tabs
High Voltage 100% Accurate tabs
Chase The Ace tabs


Guitar Tabs









All tabs are property and copyright of their owners. All tabs provided for educational purposes only. Privacy Policy, DMCA