Ac Dc

Whole Lotta Rosie (correction) Bass Tabs



More from Ac Dc

Ac Dc Tabs
Ac Dc Chords
Ac Dc Bass
Ac Dc Lyrics



Whole Lotta Rosie

Tuning: E A D G
Bassist: Cliff Williams
This song is dedicated to the biggest and fattest woman who ever fornicated. It's called
Whole Lotta Rosie. I thank you and she thanks you.

INTRO
G|---------------|
D|---------------| x12 (listen to the high-hat. it beats 4 time in between every repeat)
A|-0-3-0-5-0-3-0-|
E|---------------|

VERSE1
G|-------------------------|
D|-------------------------|
A|-0-00-0-00-0-3-0-5-0-3-0-| x17
E|-------------------------|

CHORUS
G|-------------| |------0-| |----------------|
D|-------0-0-0-| |--------| |----------------|
A|-------------| |-0--0---| x3 |----------------|
E|-2-2-2-------| |--------| |-3-2-3-2-32-3-5-|

VERSE 2
G|-------------------------|
D|-------------------------|
A|-0-00-0-00-0-3-0-5-0-3-0-| x9
E|-------------------------|

CHORUS
G|--------------| |------0-| |----------------|
D|--------0-0-0-| |--------| |----------------|
A|--------------| |-0--0---| x3 |----------------|
E|-2-2-2--------| |--------| |-3-2-3-2-32-3-5-|

GUITAR SOLO
G|-------------------------| |--------------| |-------------|
D|-------------------------| |--------0-0-0-| |-------------| x6 (Angus does the
A|-0-00-0-00-0-3-0-5-0-3-0-| x8 |--------------| |-0-3-0-5-3-0-| higher version of the
E|-------------------------| |-2-2-2--------| |-------------| intro 3 times no bass)

G|---------------| |-------------------------|
D|---------------| |-------------------------| x8
A|-0-3-0-5-0-3-0-| |-0-00-0-00-0-3-0-5-0-3-0-|
E|---------------| |-------------------------|

CHORUS/SOLO (you play the chorus but during the solo)
G|--------------| |------0-| |----------------|
D|--------0-0-0-| |--------| x3 |----------------|
A|--------------| |-0--0---| |----------------|
E|-2-2-2--------| |--------| |-3-2-3-2-32-3-5-|

SOLO/OUTRO
G|-------------------------|
D|-------------------------|
A|-0-00-0-00-0-3-0-5-0-3-0-| x21 (on the last 15 seconds you can play open notes on
the A
E|-------------------------| string really fast for a live version.)

Hope you like it please rate it.



Get this song at amazon.com      Ebay     Ringtones Ringtones  


Learn to play: Songwriting, Piano, Harmonica, Guitar

Related Ac Dc Bass Tabs

Jail Break bass
Thunder Struck(live) bass
Rock & Roll Ain't Noise Pollution bass
Let There Be Rock bass
Highway To Helll bass
Thunderstruck #1 bass
Lets Make It bass
Rock And Roll Damnation bass
Baby, Please Don't Go bass
Sin City 99% Correct bass
Let Me Put My Love Into You bass
Stiff Upper Lip bass
Dirty Deeds Done Dirty Cheap bass
Hihghway To Hell bass
Shoot To Thrill bass
Evil Walks bass
Riff Raff bass
Love Hungry Man bass
Snowballed bass
Given The Dog A Bone bass


Guitar Tabs









All tabs are property and copyright of their owners. All tabs provided for educational purposes only. Privacy Policy, DMCA