Ac Dc

Who Made Who Bass Tabs



More from Ac Dc

Ac Dc Tabs
Ac Dc Chords
Ac Dc Bass
Ac Dc Lyrics




Title: Who made who
Artist: Ac/Dc
Album: Who made who
Tabber: Steph
Email: cyberbassist@hotmail.com


intro
C
G|-------------------|
D|*-----------------*|
A|*-3-3-3-3-3-3-3-3-*|
E|-------------------|

Verse
C A
G|-----------------------------------------------------------------------|
D|-----------------------------------------------------------------------|
A|-33333333-33333333-33333333-33333333-----------------------------------|
E|--------------------------------------55555555-55555555----------------|

G C X2
G|-----------------------------------------------------------------------|
D|-----------------------------------------------------------------------|
A|------------------------------------33333333-33333333-33333333-33333333|
E|-33333333-33333333-33333333-33333333-----------------------------------|

CHORUS
C X8 G X4 C F G A C
G|------------|------------|---------------------------------------------|
D|*----------*|*----------*|*--------------------------------------------|
A|*-33333333-*|*----------*|*-33333333-33333333-33333333-------3---------|
E|------------|--33333333--|-----------------------------1-3-5-----------|


SOLO
A X4 G F
G|------------|----------------------------------------------------------|
D|*----------*|----------------------------------------------------------|
A|*----------*|----------------------------------------------------------|
E|-55555555---|-33333333-33333333-11111111-11111111----------------------|


2:39
G X8
G|------------|
D|*----------*|
A|*----------*|
E|--33333333--|


FINAL PUNCH ENDING
G F C G F C G
G|---------------------|
D|*-------------------*|
A|*-----3---------3---*|
E|--3-1---3-----1---3--|

iF ANY MYSTAKE, FEEL FREE TO CORRECT IT
eNjoY!
CYBERBASSIST



Get this song at amazon.com      Ebay     Ringtones Ringtones  


Learn to play: Songwriting, Piano, Harmonica, Guitar

Related Ac Dc Bass Tabs

Shoot To Thrill bass
Jail Break bass
Dont Go bass
Rock N' Roll Ant Noise Pollution bass
T.n.t(improved) bass
Highway To Hell (verse And Intro Only) bass
If You Want Blood bass
The Razors Edge bass
Hells Bells Modified Bass Part bass
The Jack bass
Drty Deeds Done Dirt Cheap bass
Goodbye And Good Riddance To Bad Luck bass
Rocker bass
Goin Shootin bass
If You Want Blood! (youve Got It) bass
Its A Long Way To The Top bass
Tnt bass
Riff Raff bass
Gimme A Bullet bass
Big Balls bass


Guitar Tabs









All tabs are property and copyright of their owners. All tabs provided for educational purposes only. Privacy Policy, DMCA