Ac Dc

Whiskey On The Rocks Tabs



More from Ac Dc

Ac Dc Tabs
Ac Dc Chords
Ac Dc Bass
Ac Dc Lyrics

Whiskey On The Rocks by AC/DC
tabbed by Ben Leikness

intro:
/ e-----------7--------7--------------- 
  b------0h7-----0h7------0------------
  g------------------------------------
  d------------------------------------
  a------------------------------------
  e---7--------------------------------

  e-----3------3-----------------------
  b-----3------3-----------------------
  g-----0------2-----------------------
  d-----0------0------2----------------
  a-----0------0------2----------------
 e-----3------2------0---------------- / *3


e-----------7--------7---------------
b------0h7-----0h7------0------------
g------------------------------------
d------------------------------------
a------------------------------------
e---7--------------------------------

e------------------------------------
b------------------------------------
g------------------------------------
d------------------------------------
a----2p1p0---------------------------
e----------4p3p2p0-------------------
________________________________________________________

Fig. 1
e-----------------------------------
b---------3-------------------------
g---------2-----2-------------------
d---4-----0---- 2-----------2-------
a---2-----------0-----------2-------
e---0-----------------------0-------

These 2 are not the same. Listen for timing on the "A" 
chord. All the chords are correct but there are 3 different 
timing variations.

e-----------------------------
b---------3-------------------
g---------2-----2-------------
d---4-----0---- 2----2--------
a---2-----------0--- 2--------
e---0----------------0--------
(Play both 6 times)
________________________________________________________
Fig. 2
e-----------------------------------
b---------2-------3p2---------------
g-------- 2-------2--------2--------
d---4-----2-------2--------2----2---
a---2-----0-------0--------0----2---
e---0---------------------------0---

e---------------------------
b---------------------------
g---------2-----------------
d----4----2------------2----
a----2----0------------2----
e----0-----------------0----

e----------------------------------
b----------------------------------
g----------------------------------
d----------------------------------
a-------2p1p0----------------------
e---------------4p3p2p0------------
Get this song at amazon.com      Ebay     Ringtones Ringtones  


Learn to play: Songwriting, Piano, Harmonica, Guitar

Related Ac Dc Tabs

Love Bomb tabs
Caught With Your Pants Down tabs
Down Payment Blues tabs
Dt tabs
Beating Around Te Bush tabs
Hell Ain't A Bad Place To Be tabs
Its A Long Way To The Top tabs
She's Got Balls tabs
Landslide tabs
Back In Black Intro2 tabs
Let Me Put My Love Into U tabs
Whole Lotta Rosie tabs
Danger tabs
Meanstreak tabs
Hell Or High Water tabs
Spellbound tabs
Boogie Man G tabs
Back In Black tabs
Tnt 100% tabs
Momma Lova tabs


Guitar Tabs









All tabs are property and copyright of their owners. All tabs provided for educational purposes only. Privacy Policy, DMCA