Ac Dc

U Shook Me All Night Long Tabs



More from Ac Dc

Ac Dc Tabs
Ac Dc Chords
Ac Dc Bass
Ac Dc Lyrics




Intro :
E|---------------------------------------------------------------------------|
B|--8----10---7--7--7-8-7----3-----3------3-----8----10---8--8--7-8-7----3---|
G|--7----1----8--8--------8--2-----2------------7----7----7--7--------7--2---|
D|-------------------------0-0---3-0---3H4-3-0-------------------------0-0---|
A|---------------------------------------------------------------------------|
E|---------------------------------------------------------------------------|

You can also play it this way :
E|--3----5---3--3--2-3-2-----------------3----5---3--3--2-3-2----------------|
B|--3----3---3--3--------2--3------3-----3----3---3--3--------2--3-----------|
G|--0----0---3--0-----------2------------0----0---0--0-----------2-----------|
D|------------------------0-0---3H4-3-0------------------------0-0-----------|
A|---------------------------------------------------------------------------|
E|---------------------------------------------------------------------------|

Riff : Angus and Malcolm plays it this way.
E|--3-------0---0---3----0---3---2-------3---3---2-----3-----2-----3-----|
B|--3-------1---1---3----1---3---3-------3---3---3-----3-----3-----3-----|
G|--0-------0---0---0----0---0---2-------0---0---2-----0-----2-----0-----|
D|--0-------2---2---0----2---0---0-------0---0---0-----0-----0-----0-----|
A|--2-------3---3---2----3---2-----------2---2---------2-----------2-----|
E|--3---------------3--------3-------------------------------------------|

Theres also an easier version :
E|-----------------------------------------------------------------------|
B|-----------------------------------------------------------------------|
G|--0-------5---5---0----5---0---7-------0---0---7-----0-----7-----0-----|
D|--0-------5---5---0----5---0---7-------0---0---7-----0-----7-----0-----|
A|-----------------------------------------------------------------------|
E|-----------------------------------------------------------------------|

Chorus :
E|-----3------------------------2-------------------------|
B|-----3------------3-------3---3------------3-------3----|
G|-----0----------0-------0-----2----------0-------0------|
D|-----0----------------------0-0-------------------------|
A|-----2---0-2-3-------2------------0-2-3-------2---------|
E|--3--3--------------------------------------------------|

This little part shows up before the solo :
E|--2--2--2-2--3--3--3--3-3--2-2-2-2-2-2-2-2-2-2-2-2-2-2-2-2--2-----|
B|--3--3--3-3--3--3--3--3-3--3-3-3-3-3-3-3-3-3-3-3-3-3-3-3-3--3-----|
G|--2--2--2-2--0--0--0--0-0--2-2-2-2-2-2-2-2-2-2-2-2-2-2-2-2--2-----|
D|--0--0--0-0--0--0--0--0-0--0-0-0-0-0-0-0-0-0-0-0-0-0-0-0-0--0-----|
A|------------------------------------------------------------------|
E|------------------------------------------------------------------|

Solo :
E|------3-------------------------------------------------------------|
B|-------3--6--------------------------------------6-6--8-8--8--------|
G|--7b---------7--5/3------------------3------3---7----9----9---------|
D|---------------------5-5---5--3--------5--5-------------------------|
A|----------------------5--------5--3---------------------------------|
E|-----------------------------------6p-------------------------------|

E|-----10--------------------------15-15~---15------------------------|
B|--12----12-10-8---13-11-8--8--8--------------15--18----------17-----|
G|--------------------------9--9----------------------19--17---17-15--|
D|-----------------------------------------------------------17-------|
A|--------------------------------------------------------------------|
E|--------------------------------------------------------------------|

E|-----------------------------------------20---18---19-15-17---15----|
B|--------18--18---------17-15-17-15-15-15--------------------17--17b-|
G|--17/19---19--19-17-15-17-15-17-15----------------------------------|
D|--------------------------------------------------------------------|
A|--------------------------------------------------------------------|
E|--------------------------------------------------------------------|

E|--15--15-----------15--15----15---15---18/17--15--------------------|
B|---------------------------17---17----------------------------------|
G|----------19-17/15--------------------------------------------------|
D|--------------------------------------------------------------------|
A|--------------------------------------------------------------------|
E|--------------------------------------------------------------------|



from keith



Get this song at amazon.com      Ebay     Ringtones Ringtones  


Learn to play: Songwriting, Piano, Harmonica, Guitar

Related Ac Dc Tabs

Girls Got Rhythm tabs
Got You By The Balls tabs
Solo (tnt) tabs
Rock N Roll Singer Intro tabs
Spellbound tabs
Two tabs
If You Want Blood You've Got It tabs
Hells Bells tabs
Down Payment Blues tabs
Deep In The Hole tabs
Sink The Pink tabs
Have A Drink tabs
Touch To Much tabs
Bak In Black tabs
Rock And Roll Ain't Noise Pollution G tabs
Touch Too Much tabs
Hold Me Back tabs
Bonny tabs
Dirty Deeds Done Dirt Cheap tabs
Given The Dog A Bone tabs


Guitar Tabs









All tabs are property and copyright of their owners. All tabs provided for educational purposes only. Privacy Policy, DMCA