Ac Dc

Tnt Bass Tabs



More from Ac Dc

Ac Dc Tabs
Ac Dc Chords
Ac Dc Bass
Ac Dc Lyrics

Tabbed By : Eddy J. 
e-mail: Eddyj90@hotmail.com

Any questions, feel free to email me


Tuning: E A D G

G|---------------------------------------------------------------------------|

D|---------------------------------------------------------------------------|

A|---------------------------------------------------------------------------|
.....the women to the left of me...
E|----0-0----------------------------------------------------------------------|


G|---------------------------------------------------------------------------|

D|---------------------------------------------------------------------------|

A|---------------------------------------------------------------------------|
.....the women to the right...
E|----0-0----------------------------------------------------------------------|


G|---------------------------------------------------------------------------|

D|---------------------------------------------------------------------------|

A|---------------------------------------------------------------------------|
..cause im TNT Im dynamite TNT And I win the fight
E|---------5-3-0--0-0-0-0-0-0-5-3-0-0-0-0-0-0-0-----------------------------------|


G|---------------------------------------------------------------------------|

D|---------------------------------------------------------------------------|

A|---------------------------------------------------------------------------|
..TNT Im a powerload  TNT just watch me explode
E|-5-3-0--0-0-0-0-0-0-5-3-0-0-0-0-0-0-0--------------------------------------|

Just play this at the chorus, and the second verse.  Also, play during the solo.

End:

E|-1-2-3-4-5-6-7-8-9-10-11-12-13-14-15-16-17-18-19-20-21-|  

For this part, I recmmend listening to the song and playing along with it.  The timing 
is a bit hard to explain (just go faster when U hit the 5th fret)
Get this song at amazon.com      Ebay     Ringtones Ringtones  


Learn to play: Songwriting, Piano, Harmonica, Guitar

Related Ac Dc Bass Tabs

Dont Go bass
Rock N' Roll Ant Noise Pollution bass
Live Wire bass
Dirty Eyes bass
Baby Please Dont Go bass
Evil Walks bass
Rock And Roll Aint Noise Pollution bass
Jailbreak (revised) bass
Let s get it up bass
Giving The Dog A Bone bass
Goin Shootin bass
Let There Be Rock (easy) bass
Tnt bass
Rock And Roll Damnation bass
For Those About To Rock(we Salute You) bass
Hells Bells (righty Right Right) bass
Jail Break bass
Highway To Helll bass
Hail Caesar bass
Satellite Blues bass


Guitar Tabs









All tabs are property and copyright of their owners. All tabs provided for educational purposes only. Privacy Policy, DMCA